Elephant (Acordes)

Far From Alaska

Subida por sebindio

Compartir


Imprimir FAQ
+A
-A

Texto

Desplazamiento

Transportador

Color de Fondo

Archivos

-A
+A
[Intro]  D  Am6/E  D  D9-  D  Gm9/E  D
         D  Am6/E  D  D9-  D  D4  D

E|--0------0---0---0---0---0---0-----0---0----0--0--0--0--0/0
B|--0------0---0---0---0---0---0-----0---0----0--0--0--0--0/0
G|--1------1---1---1---1---1---1-----1---1----1--2--2--2--2/1
D|--2------2---2---0---2---3---2-----2---2----2--3--3--3--3/2
A|--2------2---2---2---2---2---2-----2---2----2--3--3--3--3/2
E|--0------0---0---0---0---0---0-----0---0----0--0--0--0--0/0

E|--0------0---0---0---0---0---0-----0---0----0--0--0--0--0--0
B|--0------0---0---0---0---0---0-----0---0----0--0--0--0--0--0
G|--1------1---1---1---1---1---1-----1---1----1--2--2--2--2--1
D|--2------2---2---0---2---3---2-----2---2----2--2--2--2--2--2
A|--2------2---2---2---2---2---2-----2---2----2--2--2--2--2--2
E|--0------0---0---0---0---0---0-----0---0----0--0--0--0--0--0


D  D7  D  D9-  D  Gm9/E  D
I've been thinking too much
D  D7  D  D9-  D  D4  D
Too much to do to set my heart right 
D  D7  D  D9-  D  Gm9/E  D  D7  D  D9-  D  D4  D
I've always heard that if you can do no good, at least do no harm
D  D7  D  D9-  D  Gm9/E  D  D7  D  D9-  D  D4  D
But it's not what I see

F#m  G
      It's hard to feel this pain
F#m  G
      Can't have it other way     
F#m  F#4/A
      Imagine how it goes
F#m  G
      There's nothing left to say
F#m  G
      Got nothing on my brain
F#m  F#4/A
      I'm not the only one
D                                   Bb/G    G
Don't forget it or you'll regret it inside
D                                   Bb/G
Don't forget it or you'll regret it 
C
It takes darkness to see the light
D                                   Bb/G    G
Don't forget it or you'll regret it inside
D                                   Bb/G
Don't forget it or you'll regret it, oh oh oh

D  D7  D  D9-  D  Gm9/E  D  D7  D  D9-  D  D4  D
Do not disturb me, no

Bb/G                             G11            D
I've never believed in good and bad as only one
                  Bb/G            G11
As soon as you're getting closer to the edge
D
You have to know where you belong

CANCION TRANSPORTADA: 10 SEMITONOS
Ver. 2 Ver. 3 Ver. 4 Ver. 5 Ver. 6

Video Clip de Elephant


ACORDES PARA GUITARRA

PIANO UKELELE
E
Bm6/E
E7b9
E4
E7
G#m
A
C/G
D


TOP 20: Las más tocadas de Far From Alaska


Acordes

Cerrar
E
Bm6/E
E7b9
E4
E7
G#m
A
C/G
D

17.39

x

209