Há Um Lugar
Heloísa Rosa
Acordes

Subida por ange
Álbum: Andando na Luz ( 2006)



CANCION TRANSPORTADA: 2 SEMITONOS

Otras Versiones

ENTRENA TU OÍDO MUSICAL CON ESTE JUEGO. ¿QUÉ ACORDE ES?. CLIC AQUÍ PARA JUGAR

Cambiar Cifrado
Americano Latino

Cambiar Tonalidad
-1 +1

Partir Pantalla Imprimir FAQ

Ver solo la LETRA

+A
-A
Mudar para Português
LETRA CON ACORDES
[Intro] D9  A

D9 A
E|------------------------------------------------------------|
B|-----------8---8~------8h10---------------------------------|
G|-------7/9---9-----7/9-------------7--------------7-7h9p7---|
D|-----------------------------7-7h9----7/9---7/9-9-----------|
A|------------------------------------------------------------|
E|------------------------------------------------------------|

D9 A
E|-------------7-------------------------------------------------|
B|---------8--------8-8-7-7--------------------------------------|
G|-----7/9---9------9-9-7-7-7h9-7h9--7h9-7------7h9-7------------|
D|--------------------------7h9-7h9-----------9-------9-9--7--5~-|
A|---------------------------------------------------------------|
E|---------------------------------------------------------------|

D
Há um lugar de descanso em Ti
A
Há um lugar de refrigério em Ti
D E F#m
Há um lugar onde a verdade reina
D A
Esse lugar é no Senhor

( D9 A )

D
Há um lugar onde as pessoas não me influenciam
A
Há um lugar onde eu ouço o Teu espírito
D E F#m
Há um lugar de vitória em meio a guerra
D A
Esse lugar é no Senhor

D
Esse lugar é no Senhor
A
Esse lugar é no Senhor
D
Esse lugar é no Senhor
A
Esse lugar é no Senhor

D
Há um lugar onde a inconstância não me domina
A
Há um lugar onde minha fé é fortalecida
D E F#m
Há um lugar onde a paz é quem governa
D A
Esse lugar é no Senhor

D
Há um lugar onde os sonhos não se abortam
A
Há um lugar onde os meus medos não me dominam
D E F#m
Há um lugar que quando se perde é que se ganha

D A
Esse lugar é no Senhor
D
Esse lugar é no Senhor
A
Esse lugar é no Senhor
D
Esse lugar é no Senhor
A
Esse lugar é no Senhor

[Solo] D A

D
E|------------------------------------------------------|
B|-12/15-15-15-15-15-12--10-8---12/15-15-15-15-15-12----|
G|------------------------------------------------------|
D|------------------------------------------------------|
A|------------------------------------------------------|
E|------------------------------------------------------|

A
E|-----------------------------------------------10--------|
B|---8-10/12-12--10p8-10-8-----8-10-8h10-8--8-10----10b12--|
G|-9-------------------------9-----------------------------|
D|---------------------------------------------------------|
A|---------------------------------------------------------|
E|---------------------------------------------------------|

D
E|-----------------------15-14-12---------------------------|
B|-12/15-15-15-15-15-12-----------15--12/15-15-15-15-15-12--|
G|----------------------------------------------------------|
D|----------------------------------------------------------|
A|----------------------------------------------------------|
E|----------------------------------------------------------|

A
E|----------------------------------------------------|
B|-8-10----8-10-----8-10-----8-10---12----15---------|
G|------7--------7--------7---------------------------|
D|----------------------------------------------------|
A|----------------------------------------------------|
E|----------------------------------------------------|

D
Esse lugar é no Senhor
A
Esse lugar é no Senhor
D
Esse lugar é no Senhor
A
Esse lugar é no Senhor

ACORDES PARA GUITARRA

PIANO UKELELE
C9
G
C
D
Em


COMENTARIOS

Aún no hay comentarios,

¡escribe el primero!

Para hacer una pregunta o dejar un comentario sobre esta canción, debes estar LOGUEADO

Las canciones más tocadas de Heloísa Rosa

Toca una Canción al Azar de Heloísa Rosa
C9
G
C
D
Em

Nuestro servidor se demoró 0.03 segundos en generar esta página. Eso fue realmente muy rápido!