Earthquake

Labrinth

Acordes

Electronic Earth (2012)
Subida por alfredomusic



CANCION TRANSPORTADA: 2 SEMITONOS

Cambiar Cifrado
Americano Latino

Cambiar Tonalidad
-1 +1

Partir Pantalla Imprimir FAQ

+A
-A


Ver solo la LETRA
Here how it goes....i.e. not chords that fit a 4 bar sequence but sound nowt like 

it. Sorry but whats the point?



Intro

e|--------------------------------------------------------------------|
B|-4-3-4-3-3-3-3-4-4-3-4-3-3-3-3-3--8-6-8-6-6-6-6-8-8-6-8-6-6-6-6-6---|
g|-5-5-5-5-5-5-5-5-5-5-5-5-5-5-5-5--8-8-8-8-8-8-8-8-8-8-8-8-8-8-8-8---|
D|--------------------------------------------------------------------| x 3
A|--------------------------------------------------------------------|
E|--------------------------------------------------------------------|


e|--------------------------------------------------------------------|
B|-4-3-4-3-3-3-3-4-4-3-4-3-3-3-3-3--8-6-8-6-6-6-6-8-8-----------------|
g|-5-5-5-5-5-5-5-5-5-5-5-5-5-5-5-5--8-8-8-8-8-8-8-8-8-----------------|
D|--------------------------------------------------------------------|
A|--------------------------------------------------------------------|
E|--------------------------------------------------------------------|



Verse



    ^  ^  ^ ^  v v ^ v  ^  ^  ^ ^  v v ^ v  
    
e|--------x-x--x-x-x-x--3--3--3-3--4-4-4-4--|
B|--8--8--x-x--x-x-x-x--4--4--3-3--4-4-4-4--|
G|--8--8--7-7--8-8-8-8--5--5--4-4--5-5-5-5--|
D|--8--8--x-x--x-x-x-x--5--5--5-5--6-6-6-6--|
A|--6--6--8-8--8-8-8-8--3--3--5-5--6-6-6-6--|
E|--------6-6--6-6-6-6--------3-3--4-4-4-4--|




Middle

 1  2  3  4  1  2  3  4
|Dm         |Dm         |

|Dm         |Dm    A7   |

|Bb         |Bb    A7   |

|Dm         |Dm    A7   |


repeat intro




Thats the wack.

v = upstroke
^ = downstroke

i describe these chords as chilli chords

anyway....

comments, corrections and ratings

cheers

NUEVO FORO DE MÚSICA

¿Tienes alguna duda, consulta, pregunta, consejo o algo para compartir sobre esta canción?

¡Puedes abrir un hilo en el FORO para que la comunidad te ayude! Hacer una pregunta

ACORDES PARA GUITARRA

PIANO UKELELE
Cm
G7
G#


Las más tocadas de Labrinth

Cm
G7
G#