Convención Ancestral

Neurosis Inc.

Acordes

Subida por rardFaila



CANCION TRANSPORTADA: 1 SEMITONOS
Más Versiones
Ver. 2

Cambiar Cifrado
Americano Latino

Cambiar Tonalidad
-1 +1

Partir Pantalla Imprimir FAQ

+A
-A


Ver solo la LETRA
s=slide

Riff 1 x 2 veces

Guitarra 1
E|---------------------------------------------------------|
B|---------------------------------------------------------|
G|---------------------------------------------------------|
D|-7-9-7-9999999-7-9-7-9999999-5-7-5-7777777-5-7-5-7777777-|
A|-5-7-5-7777777-5-7-5-7777777-3-5-3-5555555-3-5-3-5555555-|
E|---------------------------------------------------------|

Guitarra 2
E|------------------------------------------------------------|
B|------------------------------------------------------------|
G|------------------------------------------------------------|
D|-7-9-7-9--------7-9-7-9---------5-7-5-7-------3-5-3-5-------|
A|-5-7-5-7--------5-7-5-7---------3-5-3-5-------3-5-3-5-------|
E|------------------------------------------------------------|


Riff 2 x 1 vez (“Corre de mano…”)

|-------------------------------------------------------------------------|
|-------------------------------------------------------------------------|
|-------------------------------------------------------------------------|
|-2-2-2-2-5-5-5-5-4-4-4-4-4-4-4-4-2-2-2-2-5-5-5-5-10-10-10-10-10-10-10-10-|
|-0-0-0-0-3-3-3-3-2-2-2-2-2-2-2-2-0-0-0-0-3-3-3-3--8--8--8--8--8--8--8--8-|
|-------------------------------------------------------------------------|


Riff 3 x 2 veces/times
(En la segunda vuelta no termina el ritmo, lo que está en negrilla no se toca
y se cruza la batería a propósito, las 4 vueltas del final de este ritmo si
se hacen todas las vueltas completas)

PM-----| PM-------| PM------|
|------------------------------------------------------------------|
|------------------------------------------------------------------|
|------------------------------------------------------------------|
|---------------------------------------12-11-11-11--11-10-10-10-9-|
|-00-0000-7--0-0--0000-8--0-0--0000-10--10-9--9--9---9--8--8-8---7-|
|------------------------------------------------------------------|



Riff 4 x 1 vex

PM-----| PM-----| PM----|
|-----------------------------------------------------------------|
|-----------------------------------------------------------------|
|-----------------------------------------------------------------|
|-2----------4--5-4----------5--7-5-----------7-7-10-10-9-9-7-7-9-|
|-0--0000000-2s-3-2--2222222-3s-5-3--3333333--5-5--8--8-7-7-5-5-7-|
|-----------------------------------------------------------------|


NUEVO FORO DE MÚSICA

¿Tienes alguna duda, consulta, pregunta, consejo o algo para compartir sobre esta canción?

¡Puedes abrir un hilo en el FORO para que la comunidad te ayude! Hacer una pregunta

ACORDES PARA GUITARRA

PIANO UKELELE


Las más tocadas de Neurosis Inc.