Blues (Rata Blanca) Acordes para Ukelele

Álbum: La llave de la puerta secreta (2005)



Más Versiones de esta Canción | Ver. 2 | Ver. 3 | Ver. 4 | Ver. 5 | Ver. 6 |

Cambiar Cifrado: |SOL > G| - |G > SOL|

BAJAR UN TONO BAJAR UN SEMI-TONO SUBIR UN SEMI-TONO SUBIR UN TONO PARTIR PANTALLA EN VERTICAL PARTIR PANTALLA EN VERTICAL ¡Ayuda!
-A
+A
¡¡¡ENTRE PARENTESIS ESTAN LOS ARREGLOS!!!


INTRO
G ------------------------------------------------------
D ------------2-----------------------------------------
A -------2---------4-----4-----2----------------------
E -2-----------------------------------4-----2---------


C# (C#,E,F) F#
VEO EL INFINITO MIRANDO TUS OJOS
B A G#
Y VOY A ABRAZARTE CON ESTE BLUES
=
SOY UN HOMBRE, SIEMPRE AME TU PIEL
LOCO Y CONFUNDIDO CUANDO NO ESTAS

E (E,F#,) G#
LAS HORAS NO ALCANZAN
F# C G octava
CUANDO ESTAMOS JUNTOS EL TIEMPO ES VELOZ
E(E,F#) G#
PARECEN ETERNOS
F# A G#
AQUELLOS MOMENTOS QUE ME FALTA TU AMOR

RIFF
G ------------------------------------------------------
D ------------2-----------------------------------------
A -------2---------4-----4-----2----------------------
E -2-----------------------------------4-----2---------

SOLO HAY SOMBRAS, CUANDO NO ESTAS

RIFF 2
G ---------------------------------------------------
D --------2-----6-----4-----------------------------
A --4------------------------2----------------------
E ----------------------------------2-----3-----4---

MI ALMA SOLA, HABLA DE BLUES...

(EN EL SOLO DE GUITARRA 1)
C# (C#,E,F) F#
B A G#

C# (C#,E,F) F#
AMO QUE ME AMES, NADIE LO HACE IGUAL
B A G#
TIEMBLAS EN MIS BRAZOS, COMO UNA LUZ
=
Y TU CUERPO, ES COMO LA LLUVIA
QUE RIEGA MI ALMA CON SU PASION

NO HABLES, HERMOSA
QUE OTRA COSA IMPORTA, SI ESTAMOS AQUI
LA NOCHE NO ES LARGA
NUNCA ES SUFICIENTE PARA HACERTE EL AMOR

SOLO HAY SOMBRAS, CUANDO NO ESTAS
MI ALMA SOLA, HABLA DE BLUES...

(EN EL SOLO DE GUITARRA 2 )
C# F# C# G#
C# F# C# A# G#

LAS HORAS NO ALCANZAN
CUANDO ESTAMOS JUNTOS EL TIEMPO ES VELOZ
PARECEN ETERNOS
AQUELLOS MOMENTOS QUE ME FALTA TU AMOR

SOLO HAY SOMBRAS, CUANDO NO ESTAS
MI ALMA SOLA, HABLA DE BLUES...



¡Siguiente!

Toca una Canción al Azar de Rata Blanca




Aún no hay comentarios, ¡escribe el primero!

Escribe un comentario o pregunta sobre esta canción:




Más canciones de Rata Blanca

Solo para amarte
La leyenda del hada y el mago (2)
Como yo nadie te ha amado
Volviendo a casa
Fantasma Azul
Asesinos
Buscando Pelea
Aún Estás En Mi Sueños
La boca del lobo
Rompe el Hechizo
La caja
Mujer Amante
Aria en Sol
Agord la bruja
Guitarra Española
Breaking away
Las voces del mar
Sinfonía Fantastica
Cuarto poder
El reino olvidado

Siguiente


ABRIR ACORDES

Nuestro servidor se demoró 0.01 segundos en generar esta página. Eso fue realmente muy rápido!
x