El héroe de las huertas (Régulo Caro) Acordes para Ukelele



Más Versiones de esta Canción | Ver. 2 |

Cambiar Cifrado: |SOL > G| - |G > SOL|

BAJAR UN TONO BAJAR UN SEMI-TONO SUBIR UN SEMI-TONO SUBIR UN TONO PARTIR PANTALLA EN VERTICAL PARTIR PANTALLA EN VERTICAL ¡Ayuda!
-A
+A
Esta Es Una Version a como la toca regulo caro

Fernando Ontiveros es mi facebook por alguna duda


Los Acordes de D y E ponganlos como bajosexto

D

e |-------------------|
B |-------------------|
G |----------7--------|
D |----4--------------|
A |-------5-----------|
E |-------------------|


A

e |-----5-----------|
B |-----5-----------|
G |--------6--------|
D |------------7----|
A |------------7----|
E |-----5-----------|


E

e |-------------------|
B |-------------------|
G |----6--------------|
D |------------9------|
A |-------7-----------|
E |-------------------|

(*) agan este arreglo para caer en D

e |------------------|
B |------------------|
G |------------------|
D |------------------|
A |------------4-5---|
E |-----5---7--------|

(**)agan este arreglo para caer en E casi al terminar una estrofa

e |--------------------|
B |--------------------|
G |--------------------|
D |--------------------|
A |--------5--6--7-----|
E |-----5--------------|



A (*) D
El corredor de las huertas pasando los chinos
E A
Es frontera de la muerte cruzar mocorito
(**) E D E D E A
Van lampareando las toches entre las veredas con cuernos de disco


(*) D
Se despidió de su amada también de su hijo
E A
pa encontrarse con la muerte saliendo del sitio
(**) E D E D E A
carlos encaro al destino y se topetearon rajándose a tiros



(*) D
Venían del sitio de arriba, un convoy en fila
E A
partiendo a las huertas tomaron la brecha
(*) D
con rumbo a un fandango, ahí lo convidaron
E A
alla andaba el diablo de honor invitado
E A
toreando a la muerte provocando a carlos
(**) E D E D E A
asi planearon el cuatro pa comprometerlo pero topetearon





Asi es toda la cancion




querían robarse a una plebe y entro a rescatarla
lo desconoció su gente estando en la tomada
carlos de pocas palabras no gasto saliva acciono con su escuadra

Carlos inicio el ataque y doblo al enemigo
y en el contraataque lo sorprendió un tiro
fueron las ultimas balas que escupió la súper del compa carlios

esa gente de las huertas, sé que lo recuerdan
quedará en su historia, en su tierra en su gloria
por tener nobleza porque no cualquiera
entrega su vida por ofensa ajena
y espero este agradecida y tomen en cuenta
dios pone en tela de juicio la vida de un mártir héroe de las huertas



¡Siguiente!

Toca una Canción al Azar de Régulo Caro
D
A
E




Aún no hay comentarios, ¡escribe el primero!

Escribe un comentario o pregunta sobre esta canción:




Más canciones de Régulo Caro

Il' Matadore
Al Rato Te Me Pasas
Yo seré siempre tuyo
Final Feliz
Apenas te fuiste ayer
Soldados del Chapo
Ser piloto en Guamuchil
El barba negra
25 de diciembre
Los hijos de la guerra
Lobo Hombre en París
100 Vidas Antrax
30 Años
Lamborgini Azul
Y Lloraras
Cicatrices
Kikil Caro
Soldado Imperial
La fuga del Dorian
Pancho y Arturo

Siguiente


ABRIR ACORDES

Nuestro servidor se demoró 0.04 segundos en generar esta página. Eso fue realmente muy rápido!