Hot To Trot

10cc

Acordes

Subida por Lucho


Más Versiones
Ver. 2 Ver. 3 Ver. 4 Ver. 5 Ver. 6

Cambiar Cifrado
Americano Latino

Cambiar Tonalidad
-1 +1

Partir Pantalla Imprimir FAQ

+A
-A


Ver solo la LETRA
(intro lick - harmony)

----------------------------------------------|
----------------------------------------------|
-------------------------------------------5--|
--7-5-5-5-5---5-5-5-7----7-5-5-5-5---5-5h7--7-|
----------------------------------------------|
----------------------------------------------|
(2x)
----------------------------------------------|
-------------------------------------------8--|
--9-7-7-7-7---7-7-7-9----9-7-7-7-7---7-7h9---9|
----------------------------------------------|
----------------------------------------------|
----------------------------------------------|

(1 verse)
F#m B A B E
She had a shake like a belly dancer, and a body like a tiger tiger
F#m E A B C#
Uh,huh Uh,huh She was looking at me.
F#m B A B E
Now you know that i ain't no dancer, but there's gotta be a way to meet her
F#m E F#m
So I just walked up to her and said, are you hot to trot?

(lick 1)
--------------------|
--------------------|
--7b9--7-6-4-6-3b5--|
--------------------|
--------------------|
--------------------|
x2
--------------------|
--6b8--6-5-3-5-2b4--|
--------------------|
--------------------|
--------------------|
--------------------|

(lick 2)
---------------------------------|
---------------------------------|
-----------------------------0-1-|
---------------0-1-2-3---3-4-----|
-3---2-3-4-5---------------------|
---------------------------------|
x2
---------------------------------|
---------------------------------|
-----------------0-1-2---2-3-4-5-|
-2---1-2-3-4---4-----------------|
---------------------------------|
---------------------------------|

(back to intro lick 2x)

(verse 2 and 3 are played just the same as verse 1)

(verse 2)
Well I know I was looking cool, pretty sharp like a razor razor
Uh,huh Uh,Huh She was smiling at me

So I said if you got the notion, we could take a little trip to the ocean
She said that'll be OK
Cause I'm hot to trot.

(lick 1 - 2x)
(lick 2 - 2x)
(back to intro lick 2x)

(verse 3)
We were having a ball by the water, talking about life and philosophizing
Uh,huh Uh,huh She was really talking to me

She said I can't understand why you got to hustle
Struttin' and posin' and flexin' muscle
So I said, well that's easy baby I'm hot to trot

(lick 1 - 2x)

--------------------------------------------------------------|
--------------------------------------------------------------|
-----------------------------0-1---1-2-3-4--4-5-6-7--7-8-9-10-|
---------------0-1-2-3---3-4----------------------------------|
-3---2-3-4-5--------------------------------------------------|
--------------------------------------------------------------|

--------------------------------------------------------------|
-------------------------------------------------------6-7-8-9|
-----------------0-1-2---2-3-4-5---5-6-7-8--8-9-10-11---------|
-2---1-2-3-4---4----------------------------------------------|
--------------------------------------------------------------|
--------------------------------------------------------------|

(outro riff)
|---------| F
|--13-----|
|--13-----|
|-----15--|
|---------|
|---------|

NUEVO FORO DE MÚSICA

¿Tienes alguna duda, consulta, pregunta, consejo o algo para compartir sobre esta canción?

¡Puedes abrir un hilo en el FORO para que la comunidad te ayude! Hacer una pregunta

ACORDES PARA GUITARRA

PIANO UKELELE
F#m
B
A
E
C#
F


Las más tocadas de 10cc

F#m
B
A
E
C#
F