Milagritos (Acordes)

3 de Copas

Subida por paloma180277

Compartir


Cambiar Cifrado
Americano Latino

Cambiar Tonalidad
-1 +1
Imprimir FAQ
+A
-A

Texto

Desplazamiento

Transportador

Color de Fondo

Archivos

TONALIDAD, TAMAÑO, CIFRADO, SCROL.

Nos renovamos: Ahora puedes cambiar TODO haciendo clic en ICONO de la Guitarra () que aparece en la parte inferior de esta página.


LETRA CON ACORDES

Esta es mi primera transcripción, así que quiero dedicarla.

Quiero dedicar esta canción a la mujer que dividió mi vida en
un antes y un después. El amor de mi vida.
Para ti Katia, mi musa y sueño. Solo pude pensar en tí al
escuchar esta canción.


Aquí está la tab del inicio. Es importante que una guitarra
toque los acordes y que otra toque la tab.
Escuchen la canción y podrán coordinarse.


   E     A     B      A - B           E   A     B
E-----------------------------------------------------------|
A-----------------------------------------------------------|
D-----------------------------------------------------------|
G--9--9--6--6--4--4---2-----4p2--1---4/9--6--6--4--4/9------|
B--9--9--5--5--4--4---2--------------4/9--5--5--4--4/9------|
e-----------------------------------------------------------|


   E     A     B      A - B           E   A(cejilla)- A-B
E-----------------------------------------------------------|
A-----------------------------------------------------------|
D-----------------------------------------------------------|
G--9--9--6--6--4--4---2-----4p2--1---4/9--6--6--2--2/4--4---|
B--9--9--5--5--4--4---2--------------4/9--5--5--2--2/4--4---|
e-----------------------------------------------------------|


E                    G#m     F#m - B7sus9
No hace falta que lo digas
                      E      C#m
No hacen falta las palabras
                   F#sus9 - F#  F#m
El lenguaje de tus ojos
                   B7sus9 - B7
Dice más de lo que callas

E                    G#m     F#m - B7sus9
No hacen falta primaveras
                   E      C#m
Para florecerme el alma
                F#sus9 - F#  F#m
Pa sentir maripositas
                  B7sus9 - B7
Hormigueándome la panza

        C#m                     G#m
No me importa si los aires del otoño
      F#m - B7sus9              E
Han cubierto de hojas secas mi jardín
      A                       G#m - C#
Ya no tengo de cabeza a san Antonio
       F#m - B7sus9              E
Lo volví a poner de pie cuando te vi

        Asus9     F#m           B7sus9    E
Partiendo toda la plaza ay, ay, ay
        Asus9      F#m    B7sus9    E
Pasito a paso cuando pasabas
        Asus9     F#m           B7sus9    E
Al ritmo de una bachata ay, ay, ay
        Asus9     F#m    B7sus9 - B7
Que tu boquita cantaba

E        Asus9          F#m      B7sus9
Ay san Antoñito no te olvides de mí
E         Asus9          F#m      B7sus9
Manda una señal para que pueda dormir
E        Asus9          F#m      B7sus9
Ay san Antoñito ya no me hagas sufrir
E        Asus9          F#m      B7sus9 E
Dame un amorcito para que pueda ser feliz

              Asus9                  F#m     B7sus9    E
Dame solo un amorcito que me entregue su corazón
              Asus9                 F#m      B7sus9    E
Dame solo un amorcito pa entregarle todo mi amor (2)


 - Puente -

   E     A     B      A - B         E  A(cejilla)- A-B
E--------------------------------------------------------|
A----------------------------9--7------------------------|
D--------------------7----6------------------------------|
G--9--9--6--6--4--4-----------------9--6--6/2-2-2/4--4---|
B--9--9--5--5--4--4-----------------9--5--5-----2/4--4---|
e--------------------------------------------------------|


No hacen falta milagritos
Ya no me hace falta nada
Contigo estoy completito
Pedacitito de mi alma

No me importa si los aires del otoño
Han cubierto de hojas secas mi jardín
Ya no tengo de cabeza a san Antonio
Lo volví a poner de pie cuando te vi

Partiendo toda la plaza ay, ay, ay
Pasito a paso cuando pasabas
Al ritmo de una bachata ay, ay, ay
Que tu boquita cantaba

Ay san Antoñito no te olvides de mí
Manda una señal para que pueda dormir
Ay san Antoñito ya no me hagas sufrir
Dame un amorcito para que pueda ser feliz (2)

Dame solo un amorcito que me entregue su corazón
Dame solo un amorcito pa entregarle todo mi amor (2)


   E     A     B      A - B           E   A(cejilla)- A
E-----------------------------------------------------------|
A-----------------------------------------------------------|
D-----------------------------------------------------------|
G--9--9--6--6--4--4---2-----4p2--1---4/9--6--6--2--2--2--2--|
B--9--9--5--5--4--4---2--------------4/9--5--5--2--2--2--2--|
e-----------------------------------------------------------|

   E
E------------|
A------------|
D------------|
G--9--9------|
B--9--9------|
e------------|

Las notas son las siguientes:
        E A D G B E
E       0 2 2 1 0 0
A       0 0 2 2 2 0
B       2 2 4 4 4 2
C#m     4 4 6 6 5 4
G#m     4 6 6 4 4 4
F#sus9  2 4 2 4 2 2
F#m     2 4 4 2 2 2
F#      2 4 4 3 2 2
B7sus9* 2 2 4 2 5 2
C#      4 4 6 6 6 4
B7*     2 2 4 2 4 2
Asus9   0 0 2 2 0 0

Las notas que tienen * tienen truco.
Si tocas B7sus9* tienes que tocar también B7*.
Hay otra forma de tocarlas que a mi gusto se escucha mejor.
Ya escoges las que a ti más te gusten.

        E A D G B E
B7sus9  0 2 1 2 0 0
B7      0 2 1 2 4 0



Cualquier aclaración, duda o mejora, puedes enviarme un correo
electrónico.


Deja que la música te libere.
- Santana -


Video Clip de Milagritos


ACORDES PARA GUITARRA

PIANO UKELELE
E
A
B
G#m
F#m
C#m
F#
B7
C#
Asus9
D
G


TOP 20: Las más tocadas de 3 de Copas


Toca una Canción al Azar de 3 de Copas

Acordes

Cerrar
E
A
B
G#m
F#m
C#m
F#
B7
C#
Asus9
D
G

12.58

x

131