20th Century Fox
38 Special
Acordes

Subida por EUDY


Más Versiones
Ver. 2 Ver. 3 Ver. 4 Ver. 5 Ver. 6

Cambiar Cifrado
Americano Latino

Cambiar Tonalidad
-1 +1

Partir Pantalla Imprimir FAQ

+A
-A
Tuning normal.


INRO:
C5 (2nd guit. continuously over all bars of intro)
||------------------|------------------|------------------|------------------|
||------------------|------------4--3--|------------------|-------------4--3-|
||-5----------------|------------3--3--|-5----------------|-------------3--3-|
||-5----------------|------------3--3--|-5----------------|-------------3--3-|
||-3----------------|------------------|-3----------------|------------------|
||------------------|------------------|------------------|------------------|

both slide down
|-------------------|------------------|------------------|------------------|
|-------------------|------------3--3--|------------------|------------------|
|--5----------------|------------3--3--|-5----------------|------------------|
|--5----------------|------------3--3--|-5----------------|------------------|
|--3----------------|------------------|-3----------------|------------------|
|-------------------|------------------|------------------|------------------|

C5 Eb5 F5 Csus4
|-------------------|------------------|------------------|------------------|
|-------------------|-4----------------|-6----------------|-3--4--4--3-------|
|--5----------------|-3----------------|-5----------------|-3--3--3--3-------|
|--5----------------|-5----------------|-3----------------|-3--3--3--3-------|
|--3----------------|-3----------------|-3----------------|------------------|
|-------------------|------------------|------------------|------------------|

C5 Eb5 F5 Csus4
|-------------------|------------------|------------------|-----------------||
|-------------------|-4-------------4--|-6----------------|-3--4--4--3------||
|--5------------5---|-3-------------3--|-5----------------|-3--3--3--3------||
|--5------------5---|-5-------------5--|-3----------------|-3--3--3--3------||
|--3------------3---|-3-------------3--|-3----------------|-----------------||
|-------------------|------------------|------------------|-----------------||


VERSE:
C5 Bb5
||------------------|------------------|------------------|------------------|
||------------------|------------------|------------------|----------------4-|
||-5----------------|---------------5--|-3----------------|----------------3-|
||-5----------------|---------------5--|-3----------------|----------------3-|
||-3----------------|---------------3--|-1----------------|------------------|
||------------------|------------------|------------------|------------------|

C5 Bb5 C5 F5 G5
|-------------------|------------------|------------------|------------------|
|-------------------|------------------|------------------|------------------|
|--5----------------|---------------5--|-3----------------|------------------|
|--5----------------|---------------5--|-3---3---3---5----|------------------|
|--3----------------|---------------3--|-1---0---1---3----|-3---3---3---5----|
|-------------------|------------------|------------------|-1---0---1---3----|

G#5 Bb5 F5 F#5 G5
|-------------------|------------------|------------------|-----------------||
|-------------------|------------------|------------------|-----------------||
|--5---------5------|-3------------3---|------------------|-----------------||
|--6---------6------|-3------------3---|-3---3---3---4----|-5---------------||
|--6---------6------|-1------------1---|-3---3---3---4----|-5---------------||
|--4---------4------|------------------|-1---0---1---2----|-3---------------||


REF:
C5 Eb5 F5 Csus4
|-------------------|------------------|------------------|------------------|
|-------------------|-4----------------|-6----------------|-3--4--4--3-------|
|--5----------------|-3----------------|-5----------------|-3--3--3--3-------|
|--5----------------|-5----------------|-3----------------|-3--3--3--3-------|
|--3----------------|-3----------------|-3----------------|------------------|
|-------------------|------------------|------------------|------------------|

C5 Eb5 F5 Csus4
|-------------------|------------------|------------------|-----------------||
|-------------------|-4-------------4--|-6----------------|-3--4--4--3------||
|--5------------5---|-3-------------3--|-5----------------|-3--3--3--3------||
|--5------------5---|-5-------------5--|-3----------------|-3--3--3--3------||
|--3------------3---|-3-------------3--|-3----------------|-----------------||
|-------------------|------------------|------------------|-----------------||


Riff X - end of the 2nd ref.
-------------------|---------------------|--------------------|-------------||
-------------------|---------------------|--------------------|-------------||
-2s3-3--2s3--3-3-3-|-2s3-3-3--5--5-5-5-5-|--2s3-3--2s3--3-3-3-|--2s3--3-3-3-||
-2s3-3--2s3--3-3-3-|-2s3-3-3--5--5-5-5-5-|--2s3-3--2s3--3-3-3-|--2s3--3-3-3-||
-------------------|---------------------|--------------------|-------------||
-------------------|---------------------|--------------------|-------------||

*=============================================================================*


Ver.
C5
She claimed to travel in her own Lear jet
Bb5
When in fact she arrived in a powder blue Corvette
C5
She only stays in the plush hotels
Bb5 C5 F5 G5
She loves her daddy's cash 'Cause it spends so well
G#5 Bb5
Just watch the way she walks
F5 F#5
She's got a double barrel figure
G5
Watch her body talk

Chorus:
C5 Eb5 F5 Csus4
She's a twentieth century fox, oh watch her walk
C5 Eb5 F5 Csus4
She's a twentieth century fox, talk that talk

Ver.
She got designer jeans, so tight 'n blue
Break out in a sweat when she looks at you
She loves lights, cameras and action
To the boys on the set, she's the star attraction
Just watch the way she walks
She's got it all up front
Just watch her body talk

Chorus:
C5 Eb5 F5 Csus4
She's a twentieth century fox, oh watch her walk
C5 Eb5 F5 Riff X
She's a twentieth century fox, talk that talk

Guitar solo

Ver.
She got designer jeans, so tight 'n blue
Break out in a sweat when she looks at you
She loves lights, cameras and action
To the boys on the set, she's the star attraction
Just watch the way she walks
She's got a double barrel figure
Just watch her body talk

Chorus:

She's a twentieth century fox, oh watch her walk
She's a twentieth century fox, talk that talk
She's a twentieth century fox, oh watch her walk, watch her walk
She's a twentieth century fox, talk that talk

Guitar solo

(Walk that walk, talk that talk)

Twentieth century fox, she's a twentieth century fox
Twentieth century fox, twentieth century fox

ACORDES PARA GUITARRA

PIANO UKELELE


COMENTARIOS

Aún no hay comentarios,

¡escribe el primero!

Escribe una pregunta, duda o comentario sobre esta canción, te responderemos a la brevedad.

Las más tocadas de 38 Special

Toca una Canción al Azar de 38 Special