My First Kiss

3OH!3

Acordes

Streets of Gold (2010)
Subida por cantalicio


Más Versiones
Ver. 2 Ver. 3 Ver. 4 Ver. 5 Ver. 6

Cambiar Cifrado
Americano Latino

Cambiar Tonalidad
-1 +1

Partir Pantalla Imprimir FAQ

+A
-A
(intro)

E|---------------------------------------------------------------|
B|---------------------------------------------------------------|
G|---------------------------------------------------------------|
D|---------------------------------------------------------------|
A|---------------------------------------------------------------|
E|-0-------------------------------------------------------------|
dont let these ring

(verse)
E|---------------------------------------------------------------|
B|---------------------------------------------------------------|
G|---------------------------------------------------------------|
D|---------------------------------------------------------------|
A|---------------------------------------------------------------|
E|-0-------------------------------------------------------------|

(pre-chorus)
E|---------------------------------------------------------------|
B|---------------------------------------------------------------|
G|---------------------------------------------------------------|
D|-14-12-10-7----------------------------------------------------|
A|-14-12-10-7----------------------------------------------------|
E|-12-10-8--5----------------------------------------------------|
dont let these ring

(chorus)
E|---------------------------------------------------------------|
B|---------------------------------------------------------------|
G|---------------------------------------------------------------|
D|-14-14-14-14-14-14-14-14--12-12-12-12-12-12-12-12--------------|
A|-14-14-14-14-14-14-14-14--12-12-12-12-12-12-12-12--------------|
E|-12-12-12-12-12-12-12-12--10-10-10-10-10-10-10-10--------------|

E|---------------------------------------------------------------|
B|---------------------------------------------------------------|
G|---------------------------------------------------------------|
D|-10-10-10-10-10-10-10-10--7-7-7-7-7-7-7-7----------------------|
A|-10-10-10-10-10-10-10-10--7-7-7-7-7-7-7-7----------------------|
E|-8--8--8--8--8--8--8--8---5-5-5-5-5-5-5-5----------------------|

E|-----------------------------14-12-14-12~~---------------------|
B|-----------------14-12-14-12-----------------------------------|
G|-14b-14-12-14-12-----------------------------------------------|
D|---------------------------------------------------------------|
A|---------------------------------------------------------------|
E|---------------------------------------------------------------|

E|-----------------------------14-12-14-12~~---------------------|
B|-----------------14-12-14-12-----------------------------------|
G|-14b-14-12-14-12-----------------------------------------------|
D|---------------------------------------------------------------|
A|---------------------------------------------------------------|
E|---------------------------------------------------------------|

E|---------------------------------------------------------------|
B|---------------------------------------------------------------|
G|---------------------------------------------------------------|
D|-14-14-14-14-14-14-14-14--12-12-12-12-12-12-12-12--------------|
A|-14-14-14-14-14-14-14-14--12-12-12-12-12-12-12-12--------------|
E|-12-12-12-12-12-12-12-12--10-10-10-10-10-10-10-10--------------|

E|---------------------------------------------------------------|
B|---------------------------------------------------------------|
G|---------------------------------------------------------------|
D|-10-10-10-10-10-10-10-10--7-7-7-7-7-7-7-7----------------------|
A|-10-10-10-10-10-10-10-10--7-7-7-7-7-7-7-7----------------------|
E|-8--8--8--8--8--8--8--8---5-5-5-5-5-5-5-5----------------------|

E|-----------------------------14-12-14-12~~---------------------|
B|-----------------14-12-14-12-----------------------------------|
G|-14b-14-12-14-12-----------------------------------------------|
D|---------------------------------------------------------------|
A|---------------------------------------------------------------|
E|---------------------------------------------------------------|

E|-----------------------------14-12-14-12~~---------------------|
B|-----------------14-12-14-12-----------------------------------|
G|-14b-14-12-14-12-----------------------------------------------|
D|---------------------------------------------------------------|
A|---------------------------------------------------------------|
E|---------------------------------------------------------------|

(verse)
E|---------------------------------------------------------------|
B|---------------------------------------------------------------|
G|---------------------------------------------------------------|
D|---------------------------------------------------------------|
A|---------------------------------------------------------------|
E|-0-------------------------------------------------------------|

(pre-chorus)
E|---------------------------------------------------------------|
B|---------------------------------------------------------------|
G|---------------------------------------------------------------|
D|-14-12-10-7----------------------------------------------------|
A|-14-12-10-7----------------------------------------------------|
E|-12-10-8--5----------------------------------------------------|
dont let these ring

(chorus)
E|---------------------------------------------------------------|
B|---------------------------------------------------------------|
G|---------------------------------------------------------------|
D|-14-14-14-14-14-14-14-14--12-12-12-12-12-12-12-12--------------|
A|-14-14-14-14-14-14-14-14--12-12-12-12-12-12-12-12--------------|
E|-12-12-12-12-12-12-12-12--10-10-10-10-10-10-10-10--------------|

E|---------------------------------------------------------------|
B|---------------------------------------------------------------|
G|---------------------------------------------------------------|
D|-10-10-10-10-10-10-10-10--7-7-7-7-7-7-7-7----------------------|
A|-10-10-10-10-10-10-10-10--7-7-7-7-7-7-7-7----------------------|
E|-8--8--8--8--8--8--8--8---5-5-5-5-5-5-5-5----------------------|

E|-----------------------------14-12-14-12~~---------------------|
B|-----------------14-12-14-12-----------------------------------|
G|-14b-14-12-14-12-----------------------------------------------|
D|---------------------------------------------------------------|
A|---------------------------------------------------------------|
E|---------------------------------------------------------------|

E|-----------------------------14-12-14-12~~---------------------|
B|-----------------14-12-14-12-----------------------------------|
G|-14b-14-12-14-12-----------------------------------------------|
D|---------------------------------------------------------------|
A|---------------------------------------------------------------|
E|---------------------------------------------------------------|

E|---------------------------------------------------------------|
B|---------------------------------------------------------------|
G|---------------------------------------------------------------|
D|-14-14-14-14-14-14-14-14--12-12-12-12-12-12-12-12--------------|
A|-14-14-14-14-14-14-14-14--12-12-12-12-12-12-12-12--------------|
E|-12-12-12-12-12-12-12-12--10-10-10-10-10-10-10-10--------------|

E|---------------------------------------------------------------|
B|---------------------------------------------------------------|
G|---------------------------------------------------------------|
D|-10-10-10-10-10-10-10-10--7-7-7-7-7-7-7-7----------------------|
A|-10-10-10-10-10-10-10-10--7-7-7-7-7-7-7-7----------------------|
E|-8--8--8--8--8--8--8--8---5-5-5-5-5-5-5-5----------------------|

E|-----------------------------14-12-14-12~~---------------------|
B|-----------------14-12-14-12-----------------------------------|
G|-14b-14-12-14-12-----------------------------------------------|
D|---------------------------------------------------------------|
A|---------------------------------------------------------------|
E|---------------------------------------------------------------|

E|-----------------------------14-12-14-12~~---------------------|
B|-----------------14-12-14-12-----------------------------------|
G|-14b-14-12-14-12-----------------------------------------------|
D|---------------------------------------------------------------|
A|---------------------------------------------------------------|
E|---------------------------------------------------------------|

(bridge)
E|---------------------------------------------------------------|
B|---------------------------------------------------------------|
G|---------------------------------------------------------------|
D|---------------------------------------------------------------|
A|---------------------------------------------------------------|
E|-0-------------------------------------------------------------|

(chorus)
E|---------------------------------------------------------------|
B|---------------------------------------------------------------|
G|---------------------------------------------------------------|
D|-14-14-14-14-14-14-14-14--12-12-12-12-12-12-12-12--------------|
A|-14-14-14-14-14-14-14-14--12-12-12-12-12-12-12-12--------------|
E|-12-12-12-12-12-12-12-12--10-10-10-10-10-10-10-10--------------|

E|---------------------------------------------------------------|
B|---------------------------------------------------------------|
G|---------------------------------------------------------------|
D|-10-10-10-10-10-10-10-10--7-7-7-7-7-7-7-7----------------------|
A|-10-10-10-10-10-10-10-10--7-7-7-7-7-7-7-7----------------------|
E|-8--8--8--8--8--8--8--8---5-5-5-5-5-5-5-5----------------------|

E|-----------------------------14-12-14-12~~---------------------|
B|-----------------14-12-14-12-----------------------------------|
G|-14b-14-12-14-12-----------------------------------------------|
D|---------------------------------------------------------------|
A|---------------------------------------------------------------|
E|---------------------------------------------------------------|

E|-----------------------------14-12-14-12~~---------------------|
B|-----------------14-12-14-12-----------------------------------|
G|-14b-14-12-14-12-----------------------------------------------|
D|---------------------------------------------------------------|
A|---------------------------------------------------------------|
E|---------------------------------------------------------------|

E|---------------------------------------------------------------|
B|---------------------------------------------------------------|
G|---------------------------------------------------------------|
D|-14-14-14-14-14-14-14-14--12-12-12-12-12-12-12-12--------------|
A|-14-14-14-14-14-14-14-14--12-12-12-12-12-12-12-12--------------|
E|-12-12-12-12-12-12-12-12--10-10-10-10-10-10-10-10--------------|

E|---------------------------------------------------------------|
B|---------------------------------------------------------------|
G|---------------------------------------------------------------|
D|-10-10-10-10-10-10-10-10--7-7-7-7-7-7-7-7----------------------|
A|-10-10-10-10-10-10-10-10--7-7-7-7-7-7-7-7----------------------|
E|-8--8--8--8--8--8--8--8---5-5-5-5-5-5-5-5----------------------|

E|-----------------------------14-12-14-12~~---------------------|
B|-----------------14-12-14-12-----------------------------------|
G|-14b-14-12-14-12-----------------------------------------------|
D|---------------------------------------------------------------|
A|---------------------------------------------------------------|
E|---------------------------------------------------------------|

E|-----------------------------14-12-14-12~~---------------------|
B|-----------------14-12-14-12-----------------------------------|
G|-14b-14-12-14-12-----------------------------------------------|
D|---------------------------------------------------------------|
A|---------------------------------------------------------------|
E|---------------------------------------------------------------|

(end on)
E|---|
B|---|
G|---|
D|---|
A|---|
E|-0-|

NUEVO FORO DE MÚSICA

¿Tienes alguna duda, consulta, pregunta, consejo o algo para compartir sobre esta canción?

¡Puedes abrir un hilo en el FORO para que la comunidad te ayude! Hacer una pregunta

ACORDES PARA GUITARRA

PIANO UKELELE


Las más tocadas de 3OH!3