Un Grito En La Noche

Alejandra Guzmán

Acordes

Eternamente bella (1990)
Subida por Missiel


Más Versiones
Ver. 2 Ver. 3

Cambiar Cifrado
Americano Latino

Cambiar Tonalidad
-1 +1

Partir Pantalla Imprimir FAQ

+A
-A


Ver solo la LETRA
Un Grito En La Noche
Alejandra Guzman Feat. Moderatto
Cd: 20 Años De Exitos En Vivo Con Moderatto


Intro:

e|------------------------|---------------------|----------------------|
b|------------------------|---------------------|----------------------|
G|-----2~-----5~-----7----|-----2~-----5~-------|-----2~-----5~--------|
D|-----2~-----5~-----7-7~-|-----2~-----5~--5~-7~|-----2~-----5~--5~-7~-|
A|-0-0-0~-0-0-3~-0-0-5-7~-|-0-0-0~-0-0-3~--5~-7~|-0-0-0~-0-0-3~--5~-7~-|
E|---------------------5~-|----------------3~-5~|----------------3~-5~-|
x x x x x x x x x x x x x x


Despues El Riff, Muy Parecido Al De Paradise City Por Cierto XD

e|--------------------------------------------------------------
b|--------------------------------------------------------------
G|-------------------------------------------------------------- Continua
D|--------------------------------------/7-5-------------------- Abajo
A|--------------3~----------5~--------------7-5---------------3-
E|-5p3h5p3h5p3h5---5p3h5p3h5---5p3h5p3h5--------7-5-3h5p3hp3h5--

-------------------------------------|
-------------------------------------|
-------------------------------------|
---------------------/7-5------------|
---------5~---------------7-5--------|
5p3h5p3h5---5p3h5p3h5--------7-5-3~~~|



Verso:

G D
No Te Acerques En Este Momento, Podria Estallar!

A|--------------3~----------5~-----------3~|
E|-5p3h5p3h5p3h5---5p3h5p3h5---5p3h5p3h5---|


G D
No Te Acerques Estoy Desolado Y Me Siento Muy Mal

A|--------------3~----------5~-----------3~|
E|-5p3h5p3h5p3h5---5p3h5p3h5---5p3h5p3h5---|


PreCoro:


D G G A D G G A~
Crisis Brutal, Crisis Total, Crisis Total, Crisis Total


Coro:


G D A G D A
Shalalalalalalalalalalalaa, Shalalalalalalalalalalala...


G D A G
Un Grito En La Noche, Para No Llorar, Un Grito En La Noche,

D A
Liberacion Final...


G D A G D A
Shalalalalalalalalalalalaa, Shalalalalalalalalalalala...


Aqui Suena Un Pequeño Solo De La Guitarra

e|---------------------------9~|
b|--10-8-8-10~--10-8-8-7-8-7---|
G|-----------------------------|
D|-----------------------------|
A|-----------------------------|
E|-----------------------------|


Verso: Aqui Los Acordes Son Muteados

G D A
Ni Siquiera Me Creo Tus Cuentos, No Lo Intentes Mas

e|------------------|
b|-5h7-7-5-5h7-7-5b-|
G|-5h7-7-5-5h7-7-5b-|

G D A
No Te Acerques Que Quiero Y No Quiero Dejarme Atrapar

e|------------------|
b|-5h7-7-5-5h7-7-5b-|
G|-5h7-7-5-5h7-7-5b-|


PreCoro:

D G G A D G G A~
Crisis Brutal, Crisis Total, Crisis Brutal, Crisis Total


Coro:


G D A G D A
Shalalalalalalalalalalalaa, Shalalalalalalalalalalala...


G D A G
Un Grito En La Noche, Para No Llorar, Un Grito En La Noche,

D A
Liberacion Final


G D A G D A
Shalalalalalalalalalalalaa, Shalalalalalalalalalalala



PreSolo:

A A G A
e|----------|--------|
b|----------|--------|
G|----------|--------|
D|----------|-7-7-5-7|
A|-----7-10-|-7-7-5-7|
E|-5-8------|-5-5-3-5|


Solo:

Todo Es Con Tap (Dedo Indice Traste 5 Sin Despegar,
Mientras El Dedo Anular
Martillea El 8 Y Casi Al Mismo Tiempo Con La Plumilla Tocas El Traste 10;
Todo Muy Rapido)
Es Cuestion De Practica


e|-10p8p5h10p8p5h10p8p5h10p8p5h10p8p5h10p8p5
b|------------------------------------------
G|------------------------------------------
D|------------------------------------------ Continua Abajo
A|------------------------------------------
E|------------------------------------------

------------------------------------------
10p8p5h10p8p5h10p8p5h10p8p5h10p8p5h10p8p5-
------------------------------------------ Continua Abajo
------------------------------------------
------------------------------------------
------------------------------------------

-------------------------------------|
-------------------------------------|
fb8h10fb8h10fb8h10fb8h10fb8h10-5-7-5~|
-------------------------------------|
-------------------------------------|
-------------------------------------|

Todo El Solo De Arriba 2 Veces!



Coro:

G D A G D A
Shalalalalalalalalalalalaa, Shalalalalalalalalalalala...

G D A G
Un Grito En La Noche, Para No Llorar, Un Grito En La Noche,

D A
Liberacion Final

G D A G D A
Shalalalalalalalalalalalaa, Shalalalalalalalalalalala



Final: Es El Riff Del Intro, Solo Que Va Mas Rapido...

e|-------------------------------------------------
b|-------------------------------------------------
G|------------------------------------------------- Continua
D|--------------------------------------/7-5------- Abajo
A|--------------3~----------5~--------------7-5----
E|-5p3h5p3h5p3h5---5p3h5p3h5---5p3h5p3h5--------7-5

-----------------------------------|
-----------------------------------|
-----------------------------------|
-----------------------------------|
------------3----------5~----------|
-3h5p3hp3h5--5p3h5p3h5---5p3h5p3h5-|


e|----------|
b|----------|
G|-7-7-7-5~-|
D|-7-7-7-5~-|
A|-5-5-5-3~-|
E|----------|


Acordes:

G D A

x x x
x x x
5 7 x
5 7 7
3 5 7
x x 5

Simbologia:

~ Dejar Sonar La Nota
p Pull Off
h Hammer On
X Palm Mute
/ Slide
fb La Cuerda Va Doblada


Esta Va Dedicada Para Mi Mejor Amigo:
Miguel Angel (Duff Mc Kagan)
Recuerda...
Nunca Dejes De Rockear Man!

Espero Y Les Haya Gustado, Cualquier Duda, Mi Correo [email protected]

...Rock On Slash!

|..|,


NUEVO FORO DE MÚSICA

¿Tienes alguna duda, consulta, pregunta, consejo o algo para compartir sobre esta canción?

¡Puedes abrir un hilo en el FORO para que la comunidad te ayude! Hacer una pregunta

ACORDES PARA GUITARRA

PIANO UKELELE
G
D
A


Las más tocadas de Alejandra Guzmán

G
D
A