Carne de cañón (Acordes)

Alejandro Filio

Subida por faradune

Compartir


Imprimir FAQ
+A
-A

Texto

Desplazamiento

Transportador

Color de Fondo

Archivos

-A
+A
(canción inédita, hasta donde yo se)
Introducción, algo así como:
  riff G
E------------------------------------------
B----------------0-------------------------
G------0----0h-2---------0----0h-2--0------
D----0---0----------0h-2---0---------------
A------------------------------------------
E--3--------3-------3---------3------------

  riff C
E------------------------------------------
B----------------1-------------------------
G------0----0h-2---------0----0h-2-0-------
D----2---0----------0h-2---2---------------
A--3--------3-------3---------3------------
E------------------------------------------

   G
1  Al ver A LA selva y otra vez regresará
       (riff C)  (riff G)
   la soledad, la soledad
   G
   ¿Se mojará esta tierra con la sangre de estos niños
         (riff C)     (riff G)
   una vez más, una vez mas?

   Bm         C             G
2  Pero su verdad será la misma,
    D           C           D
   su verdad y la de tantos más,
             (riff G), (riff G)
   y ya de tantos.

1  Se romperán las reglas y otra vez esta casa
   apestará, apestará.
   Siempre habrá un culpable inocente como el  mito 
   de esta paz, de esta paz.
 
   Bm              C         G
3  Y esperará el amor una semana
    D                  C           D
   para esperar en un sitio la verdad:
    G              C          G
   Que solo somos carne de cañón
   C              D          G
   para salvaguardar su posición,
      C         D        G
   solamente carne de cañón,
    D/F#  Em  C             D         (riff G)
   o tu o yo, simplemente carne de cañón

1  Muera el insensato no daremos nunca un paso 
   no para atrás, no para atrás.
   Dura fue la mano pero más las historia que 
   LA juzgará, LA juzgará.

3  Y esperará el amor otra semana
   cuando menos para no olvidar
   Que solo somos carne de cañón
   para salvaguardar su posición,
   simplemente carne de cañón,
   hoy tu o yo, simplemente carne de cañón.
   C              D        (riff G)
   simplemente carne de cañón.
   (riff C), (riff G)
       ou ou


Video Clip de Carne de cañón


ACORDES PARA GUITARRA

PIANO UKELELE
G
C
A
A
Bm
D
D/F#
Em


TOP 20: Las más tocadas de Alejandro Filio


Acordes

Cerrar
G
C
A
A
Bm
D
D/F#
Em

17.50

x

92