Otro Domingo Sin Sol (Acordes)

Alejandro Filio

Subida por Amaranta

Compartir


Imprimir FAQ
+A
-A

Texto

Desplazamiento

Transportador

Color de Fondo

Archivos

-A
+A
Alejandro Filio
Otro Domingo Sin Sol


Esta canción del señor Alejandro filio del disco en vivo,
esta mejor que la primera que esta aquí solo tóquenla.
Quiero dedicarla a una persona muy especial que marco mi vida
con un domingo gris cuando solo me había dado días de sol.
La canción dice así es mi primera trascripción que les guste y
la puedan tocar de su acompañero José Francisco L. R.

Intro...

    G                    C                D D4    G

6---3---3----3------------------------------------3---
5-----------------------3----3------------------------
4-----------------------2------2----------0--0--------
3------------------0----0--------0--------2--2--------
2---3---3-------3-------1---------1-------3--3----3---
1---3---2----0----------------------0-----2--3----3---


    G                    C                D

6---3---3----3---------------------------------------3-
5-----------------------3----3-------------------------
4------------------------------2-----------0---0-------
3------------------0------------0-----0-2h0----2-------
2---3---3-------3----------------1 1h0---------3-3-3-3-
1---3---2----0----------0------------------------2-3-3-


SOL            DO             RE     G* SOL
QUE SENTIDO DEL HUMOR TUVO EL DESTINO
  SOL             DO            SI7
NOS JUGO LA BROMA CRUEL DEL DESAMOR
    MIm           LA7   *  DO    RE      SOL
Y DESPERTAMOS VENCIDOS, OTRO DOMINGO SIN SOL.

Intro..

   SOL            DO          RE  G*  SOL
COMO SI SE DESANDARA EN EL CAMINO
 SOL              DO            SI7
COMO DOS GOTAS DE LLUVIA EN UN CICLON
   MIm            LA7     *  DO     RE          G1 SOL
TE DEBO EL TIEMPO PERDIDO, ME DEBES LO QUE FALTÓ.

   DO            SIm
QUE PESA MAS LA NIEVE O TODO EL FRIO
   DO            SIm
QUE DOLERA CON MEDIO CORAZON
   DO             SOL
COMO EMPEZAR DE CERO Y AL VACIO
   LAm            RE7/F#                  RE  RE4 SOL
POR QUE JURAR QUE ESTA SEGURO LO QUE SE PACTO.





 SOL         DO          RE      SOL
EL SILENCIO AMANECIO SIEMPRE CONTIGO
     SOL         DO            SI7
O TAL VES DEBO DECIR QUE ENTRE LOS DOS
     MIm          LA7    *     DO     RE       SOL
GUARDA EL SECRETO CONMIGO POR SI ESCUCHASTE MI VOZ

INTRO..



SOL         DO          RE      SOL* SOL
DECIDIDO POR VIVIR LO QUE VIVIMOS,
   SOL         DO            SI7
VAYA VIDA QUE VIVIMOS DEL TEMOR
      MIm          LA7       *  DO     RE       SOL
JURAS QUE HAY ALGO ENCENDIDO, YO NO PERCIBO CALOR.

   DO              SIm               SIm*
QUE PESA MAS LA NIEVE O TODO EL FRIO
   DO            SIm
QUE DOLERA CON MEDIO CORAZON
   DO             SOL
COMO EMPEZAR DE CERO Y AL VACIO
   LAm          RE7/F#                 RE   RE4 SOL
POR QUE JURAR QUE ESTA SEGURO LO QUE SE PACTO.


SOL            DO              RE    G1 SOL
QUE SENTIDO DEL HUMOR TUVO EL DESTINO
  SOL             DO            SI7
NOS JUGO LA BROMA CRUEL DEL DESAMOR
    MIm           LA7  *   DO    RE      SOL
Y DESPERTAMOS VENCIDOS, OTRO DOMINGO SIN SOL.

INTRO SOLO UNA PARTE

*
5---0h2h3-

   G*
6------------3--
5---------------
4---------------
3-------2h0--0--
2---1h0------0--
1---------------


   G1
6------------3--
5---------------
4---------------
3---2h0-2h0-0--
2---1h0------3--
1---------------

SIm*

6----------------------------
5---2------------------------
4----------------------------
3---4--4---------------------
2---3-------5----3---2-------
1---2----2----2----2---2-----

Hasta la siguiente vez...


Video Clip de Otro Domingo Sin Sol


ACORDES PARA GUITARRA

PIANO UKELELE
G
C
D
D4
G
C
D
G
B7
Em
A7
G
Bm
Am
D4
G
Bm


TOP 20: Las más tocadas de Alejandro Filio


Acordes

Cerrar
G
C
D
D4
G
C
D
G
B7
Em
A7
G
Bm
Am
D4
G
Bm

18.01

x

107