Chivita de amor (Acordes)

Alejandro Palacio

Subida por Jc77

Compartir


Imprimir FAQ
+A
-A

Texto

Desplazamiento

Transportador

Color de Fondo

Archivos

-A
+A
Ola. Soy de Colombia y hace tiempo que buscaba una cancion que no
estuviera en acordes web.com para colaborarle al pagina que me ha
ayudado bastante en mi formacion con la guitarra, al fin la encontre,
esta es mi primera transcripcion espero que este bien, y en el futuro
la seguire corregiendo, todo bien.

Intro
e-0h1s3-3-1-0-1-5-----5s7-8-7-5-3-5------5s3-5s33------------
B-0h1s3-3-1-0-1-5-----5s7-8-7-5-3-5------5s3-5s3-------------
G------------------------------------------------------------
D------------------------------------------------------------
A------------------------------------------------------------
E------------------------------------------------------------

e----------------15-15-15--13-12-------------------13-13-13--
B-------12-13-15-----------------15-13----------13-----------
G-12-14-----------------------------------12-14--------------
D------------------------------------------------------------
A------------------------------------------------------------
E------------------------------------------------------------

e-------12-----------------15-15-15--13-12-----------12s13-15
B-13-15----15------------------------------15-13-------------
G-----------------12s14s12-----------------------------------
D------------------------------------------------------------
A------------------------------------------------------------
E------------------------------------------------------------

e-17-17-17--12-13-15--17-13----19s20-19s20-19s20-19-17-15----
B------------------------------------------------------------
G------------------------------------------------------------
D------------------------------------------------------------
A------------------------------------------------------------
E------------------------------------------------------------

(Arpegien esta parte)
C                         Am
aunque de tu boca salga insultos para mi,
        F       Dm            G
que soy gordo, narizón, hasta parezco un caballo,

(Aqui empiezan los rasgueos)
          F         G                      C
cuando lo vuelvas a hacer con mis besos te callo,
          F                    G
porque te quiero mucho mucho…
             C                    F
Y tu eres mi princesa y yo soy tu vasallo
      Dm             Am        G
tu mi cenicienta del charco de sapo,
              C                   F
sigues siendo reina aunque vistas harapos,
    Dm                    G
y a pesar que la gente se oponga,
      Dm       Am      F
a que florezca nuestro amor,
Dm         Am           F
quiero que sepas que tu eres,
   G          C
mi chivita de amor

behh!
C
Aunque tengas piojos de mas,
Am
te los voy a sacar,
F                Dm
yo lo acepto, es un sacrificio,
G
me los tengo que aguantar,
        F            G               C
y si te los vuelvo a ver, de tu lado me aparto
            F          G
pero vuelvo a tu lado porque…

Corox2
           C                    F
tu eres mi princesa y yo soy tu vasallo
      Dm             Am        G
tu mi cenicienta del charco de sapo,
              C                   F
sigues siendo reina aunque vistas harapos,
    Dm                    G
y a pesar que la gente se oponga,
      Dm       Am      F
a que florezca nuestro amor,
Dm         Am           F
quiero que sepas que tu eres,
   G          C
mi chivita de amor


Saludos y que viva Medellin Hijuep$%&”

HERRAMIENTAS ACORDESWEB:


LETRA DE LA CANCIÓN:

Ver la letra sola (sin acordes)

OTRAS VERSIONES DE LA MISMA CANCIÓN:

Ver. 2 Ver. 3

DESCARGAR PDF / IMPRIMIR CANCIÓN



ACORDES PARA GUITARRA

PIANO UKELELE
C
Am
F
Dm
G


TOP 20: Las más tocadas de Alejandro Palacio


Acordes

Cerrar
C
Am
F
Dm
G

10.54

x

76