Quero Conhecer Jesus (Acordes)

Alessandro Vilas Boas

Subida por Martha

Compartir


Cambiar Cifrado
Americano Latino

Cambiar Tonalidad
-1 +1
Imprimir FAQ
+A
-A

Texto

Desplazamiento

Transportador

Color de Fondo

Archivos

TONALIDAD, TAMAÑO, CIFRADO, SCROL.

Nos renovamos: Ahora puedes cambiar TODO haciendo clic en ICONO de la Guitarra () que aparece en la parte inferior de esta página.


LETRA CON ACORDES

Tom: G
[Intro] C  D9(11)  Em7  Bm7
        C  D9(11)  Em7  Bm7

                                       H
E|-----------------10---------7--------7-----|
B|-7b8r7---------8------8/10----10-----7-----|
G|--------9----9-----------------------7-----|
D|----------10-------------------------7-----|
A|-------------------------------------------|
E|-------------------------------------------|

                                 H        H
E|--------5-7-5------------------12-------7---|
B|-/5---8--------8--5~-----------12-------7---|
G|-------------------------------12-------7---|
D|-------------------------------12-------7---|
A|--------------------------------------------|
E|--------------------------------------------|

[Primeira Parte]

         C                    D9(11)
O meu orgulho me tirou do jardim
          Em7                      Bm7
Sua humildade colocou o jardim em mim
        C       D
E|--------------------------------------------|
B|--------------------------------------------|
G|------0-------0-----------------------------|
D|------2-------4-----------------------------|
A|------3-------5-----------------------------|
E|--------------------------------------------|

                                 H        H
E|--------5-7-5------------------12-------7---|
B|-/5---8--------8--5~-----------12-------7---|
G|-------------------------------12-------7---|
D|-------------------------------12-------7---|
A|--------------------------------------------|
E|--------------------------------------------|

            C
E se eu vender tudo o que tenho
     D9(11)               Em7  Bm7
Em troca do amor eu falharia
         C                  D9(11)
Pois o amor não se compra, nem se merece
    Em7               Bm7
O amor se ganha, de graça o recebe

[Refrão]

     C               D9(11)
Eu quero conhecer Jesus
     Em7             Bm7              C   D9(11)  Em7  Bm7
Eu quero conhecer Jesus e ser achado Nele

     C               D9(11)
Eu quero conhecer Jesus
     Em7             Bm7
Eu quero conhecer Jesus
     C               D9(11)
Eu quero conhecer Jesus
     Em7             Bm7              C   D9(11)  Em7  Bm7
Eu quero conhecer Jesus e ser achado Nele

C  D9(11)  Em7  Bm7  )
C  D9(11)  Em7  Bm7  )

[Primeira Parte]

         C                    D9(11)
O meu orgulho me tirou do jardim
          Em7                      Bm7
Sua humildade colocou o jardim em mim
            C
E se eu vender tudo o que tenho
     D9(11)               Em7  Bm7
Em troca do amor eu falharia

E|--12---14---15---14---10--------------------|
B|--x----x----x----x----x---------------------|
G|--9----11---12---11---7---------------------|
D|--------------------------------------------|
A|--------------------------------------------|
E|--------------------------------------------|

         C                  D9(11)
Pois o amor não se compra, nem se merece
    Em7               Bm7
O amor se ganha, de graça o recebe
    C                  D9(11)
O amor não se compra, nem se merece
    Em7               Bm7
O amor se ganha, de graça o recebe

[Refrão]

     C               D9(11)
Eu quero conhecer Jesus
     Em7             Bm7
Eu quero conhecer Jesus e ser achado Nele

     C               D9(11)
Eu quero conhecer Jesus
     Em7             Bm7              C   D9(11)  Em7  Bm7
Eu quero conhecer Jesus e ser achado Nele

[Ponte]

E|--------------------------------------------|
B|--3--5----3---5-----7--8----12---7----------|
G|--------------------------------------------|
D|--------------------------------------------|
A|--2--3----2---3-----5--7----10---5----------|
E|--------------------------------------------|

E|--------------------------------------------|
B|--3--5----3---5-----3--5----3--5------------|
G|--------------------------------------------|
D|--------------------------------------------|
A|--2--3----2---3-----2--3----2--3------------|
E|--------------------------------------------|

E|--------------------------------------------|
B|--7--8----7---8-----12------7---------------|
G|--------------------------------------------|
D|--------------------------------------------|
A|--5--7----5---7-----10------5---------------|
E|--------------------------------------------|
    C   Em  G  D/F#
Yeshua_________a!
    C   Em  G  D/F#
Yeshua_________a!
    C   Em  G  D/F#
Yeshua_________a!
    C   Em  G  D/F#
Yeshua_________a!

[Solo]

E|--------------------------------------------|
B|--7-9~--7-9~--7-9~-7-9--11-12--11-12--16-11-|
G|--------------------------------------------|
D|--------------------------------------------|
A|--------------------------------------------|
E|--------------------------------------------|

        C             Em
O meu amado é o mais belo
          G          D/F#
Entre milhares e milhares
        C             Em
O meu amado é o mais belo
          G          D/F#
Entre milhares e milhares

        C             Em
O meu amado é o mais belo
          G          D/F#
Entre milhares e milhares
        C             Em
O meu amado é o mais belo
          G          D/F#
Entre milhares e milhares

C  Em  G  D/F# )

[Refrão]

     C               D9(11)
Eu quero conhecer Jesus
     Em7             Bm7
Eu quero conhecer Jesus

     C               D9(11)
Eu quero conhecer Jesus
     Em7             Bm7
Eu quero conhecer Jesus

Video Clip de Quero Conhecer Jesus


ACORDES PARA GUITARRA

PIANO UKELELE
C
D11
Em7
Bm7
D
Em
G
D/F#


TOP 20: Las más tocadas de Alessandro Vilas Boas


Acordes

Cerrar
C
D11
Em7
Bm7
D
Em
G
D/F#

12.21

x

152