Arde otra vez (Acordes)

Alexis Peña

Subida por Agarciadrums

Compartir


Cambiar Cifrado
Americano Latino

Cambiar Tonalidad
-1 +1
Imprimir FAQ
+A
-A

Texto

Desplazamiento

Transportador

Color de Fondo

Archivos

TONALIDAD, TAMAÑO, CIFRADO, SCROL.

Nos renovamos: Ahora puedes cambiar TODO haciendo clic en ICONO de la Guitarra () que aparece en la parte inferior de esta página.


LETRA CON ACORDES

Intro 2x: Gm7(9)  Dm7(9)

                  Gm7(9)
E|-x-x---x---x-x--5p3-5--3--5-3----5---5---
B|-x-x---x---x-x--3---3--3--3-3----3---3---
G|-x-x---x---x-x--3---3--3--3-3----3---3---
D|-x-x---x---x-x--3-------------x----------
A|-x-x---x---x-x----------------x----------
E|-x-x---x---x-x--3-------------x--3-----3-


E|-5--5---5---5p3-5--3--5-3--5-5h6-5-------
B|-3--3---3---3---3--3--3-3--3-3---3--6----
G|-3--3---3---3---3--3--3-3--3-3---3--3----
D|-3--3---3---3--------------3-3-----------
A|-----------------------------------------
E|------3-----3--------------3-3---3--3----


   Dm7(9)
E|-----------------------------------------
B|-5--5--x---5--5-----5--5-----5-----------
G|-5--5--x---5--5-----5--5-----5-----------
D|-x--x--x-x-x--x-----x--x-----x-----------
A|-5-----x-5-------5--5--5--5--------------
E|-----------------------------------------


   Dm7(9)
E|-----------------------------------------
B|-5--5--x---------------------------------
G|-5--5--x---------------------------------
D|-x--x--x-x-3----/7---3h5/65p3-----------
A|-5-----x-5---5/----x---------------------
E|-----------------------------------------


Primera estrofa:

Gm7(9)
Ya no quiero mas vivir
                               Dm7(9)
Lejos ya de tu presencia, mi Señor

a ti quiero volver, volver al inicio de todo
     Gm7(9)
De cuando yo era feliz
                                 Dm7(9)
Sentía siempre tu presencia, caminaba libre en tu jardín

Te encontraba todo el día
           Gm7(9)
Mas me perdí, Señor al caminar

Trate de andar yo solo en la aventura
       Dm7(9)
de esta vida y fue solo ilusión

confieso que estaba perdido si
               Gm7(9)
mas hoy yo te devuelvo un corazón

Arrepentido por lo que paso
          Dm7(9)
Quiero volver Señor sentir tus ríos

Volver a estar entre tus ríos


 Dm7(9)
E|------------------------3--3---3---------
B|-5----5---------------5-5--5---5---------
G|-5----5--x--x-x-------5-5--5---5---------
D|-3----3--x--x-x-------3-3--3---3---------
A|-5--5-5--x--x-x--5--5-5------5-----------
E|-----------------------------------------

pre coro 2x:

    A#7M(9)    Am7  Gm7(11)
Me lava, me sacia, me enseña
             A#7M(9)    Am7
Me inspira y arde otra vez
        Gm7(11)
en mi corazón


 A#7M(9)                    Gm7(11)
E|-1---1-1---1--1----1-1---1--1----1-1---1-
B|-1---1-1---1--1----1-1---1--1----1-1---1-
G|-7---7-7---7--5----5-5---5--3----3-3---3-
D|-7---7-7---7--5----5-5---5--3-3--3-3---3-
A|-----------------------------------------
E|-6-6-----6----5--5-----5----3-3------3---


E|-1-----1-1---1---------------------------
B|-1-----1-1---1---------------------------
G|-3-----3-3---3---------------------------
D|-3--3--3-3---3---------------------------
A|-----------------------------------------
E|-3--3------3-----------------------------


 A#7M(9)     A#7    Dm7(9)
E|-1---1-1-1--1----1-1-1--1----------------
B|-1---1-1-1--1----1-1-1--5----------------
G|-7---7-7-7--5----5-5-5--5----------------
D|-7---7-7-7--5----5-5-5--3----------------
A|------------------------5----------------
E|-6-6--------5--5-------------------------



Coro 4x:

            Gm7
De brazos abiertos te voy a recibir
             Dm7(9)
hijo yo estaba esperando por ti
                               Gm7
tu eres todo lo que yo soñé un día
        Dm7(9)
yo te amo.


 Gm7
E|-----------------------------------------
B|-3--3-x----3-3---3--3--3---3--3-3--------
G|-3--3-x----3-3---3--3--3---3--3-3--------
D|-3--3-x----3-3---3--3--3---3--3-3-----3--
A|-5--5-x----5-5---5--5--5---5--5-5---5----
E|-3----x--3-----3---------3--------3------


E|-----------------------------------------
B|-----------------------------------------
G|-----3-----------------------------------
D|-----------------------------------------
A|-5---------------------------------------
E|---3-------------------------------------


 Dm7(9)
E|-----------------------------------------
B|-5--5-x----5-5---5--5--5---5--5-5--------
G|-5--5-x----5-5---5--5--5---5--5-5--------
D|-3--3-x----3-3---3--3--3---3--3-3-----3--
A|-5--5-x--5-----5---------5----------5----
E|------x----------------------------------


E|-----------------------------------------
B|---------5-------------------------------
G|--5--------------------------------------
D|------3----------------------------------
A|----5------------------------------------
E|-----------------------------------------


 Dm7(9)
E|-----------------------------------------
B|-5--5-x--------------5-------------5-5---
G|-5--5-x--------------5-------------5-5---
D|-3--3-x------32-----------32-----------
A|-5--5-x--3-5-----3h5---3-5-----3h5-5-5-5-
E|------x----------------------------------


E|-----------------------------------------
B|-5---------------------------------------
G|-5---------------------------------------
D|-----------------------------------------
A|-5---------------------------------------
E|-----------------------------------------


 Gm7(9) Dm7(9)
-5-------1---1---------------------------
-3-------5---5---------------------------
-3-------5---5---------------------------
-3-------3---3---------------------------
-5-------5---5---------------------------
-3--------------------------------------



(Intro 2x)

(estrofa)

precoro 2x:

    A#7M(9)    Am7  Gm7(11)
Me lava, me sacia, me enseña
             A#7M(9)    Am7
Me inspira y arde otra vez
        Gm7(11)
en mi corazón

fluir:

A#7M(9)       Am7              Gm7(11)
ven a mi, otra vez, quiero que vengas a mi lado
quiero tenerte entre mis brazos
A#7M(9)                          Am7
que sepas que mi amor siempre ha estado para ti
  Gm7(11)
mi amor nunca ha cambiado y nunca cambiara
A#7M(9)              Am7
hoy te restauro tu lugar a mi lado
Gm7(11)
olvido todo lo que ha pasado
A#7M(9)                Am7
ven y corre hoy libre en mi jardín
Gm7(11)
es el lugar que he preparado para ti
A#7M(9)    Am7          Gm7(11)
escucha mi voz, que canta para ti
A#7M(9)    Am7          Gm7(11)
escucha mi voz, llamando por tu nombre por que hoy
  A#7M(9)  A#7       Dm7(9)
arderé, otra vez en tu corazón.

coro.


Video Clip de Arde otra vez


ACORDES PARA GUITARRA

PIANO UKELELE
Gm7
Dm7
Am7
A#7


TOP 20: Las más tocadas de Alexis Peña


Acordes

Cerrar
Gm7
Dm7
Am7
A#7

11.44

x

70