The Reason Youre Still Alive
All Get Out
Acordes

Subida por CesiahG



Cambiar Cifrado
Americano Latino

Cambiar Tonalidad
-1 +1

Partir Pantalla Imprimir FAQ

+A
-A

LETRA Y ACORDES

-------------------------------------------------------------------------------

                             The Reason You're Still Alive - All Get Out
-------------------------------------------------------------------------------
Tabbed by:scott 
Email:[email protected]

Tuning:standard
All Get Out is amazing
http://www.favoritegentlemen.com/artists/ago.main.php

Intro part - He plays something kinda like this at the beginning and at other points in the song. 
e|----------------------------------------------|
B|----------h3----------------------------------|
G|-0-0-0-h4----0-------------0------------------|
D|---------------2-2---0-0h2--------------------|
A|-------------------2--------------------------|
E|----------------------------------------------|

e|----------------------------------------------|
B|----------h3----------------------------------|
G|-0-0-0-h4----0---------2/4\2p0----------------|
D|---------------2-2---0------------------------|
A|-------------------2--------------------------|
E|----------------------------------------------|

e|----------------------------------------------|
B|----------h3----------------------------------|
G|-0-0-0-h4----0-------------0------------------|
D|---------------2-2---0-0h2--------------------|
A|-------------------2--------------------------|
E|----------------------------------------------|
                                  very last time in song
e|------------------------------|-------------------|
B|----------h3------------------|---------h3--------|
G|-0-0-0-h4----0----------------|-0-0-0-h4---2p0-0-0|
D|---------------2-2---0--------|-------------------|
A|-------------------2---2p0-2p0|-------------------|
E|------------------------------|-------------------|

I play the verse chords palm muted like this, but the chorus chords normal
Em: 02xxxx
G:  32xxxx
C:  x32xxx
Am: 54xxxx
The G to Am is real quick

Em           G                 C        G        Am
Stare at the wall and think of how many ways that you
Em       G       C                G      Am
You can die, how many tries did it take?
 Em            G            C       G         Am
So stay, stay alive if you can be surprised
 Em      G       C           G      Am
Be a man if want it you'd be gone.
Em    G             C            G        Am
Dig a hole put your devil in the ground
Em    G             C           G              Am
Dont forget put my name on the stone where it goes
        Em        G        C           G      Am       Em
Are you scared to die just afraid to be alone and grow old
         G            C        G 
I havent been that in years

G       Am   C      G
Crucify me, satisfy me
G       Am   C      G
Crucify me, satisfy me

(intro thing)x4

Em     G                 C                    G      Am
I was born to break your heart, to break your soul
Em        G               C                 G              Am   
Watch you die this means nothing, Ive done worse to better people
      Em          G        C            G    Am       Em
Are you scared to die just afraid to be alone and grow old
  G            C       G
I havent been that in years
G       Am   C      G
Crucify you, satisfies me
G       Am   C      G
Crucify you, satisfies me
G       Am   C      G
Crucify you, satisfies me
G       Am   C      G
Crucify you, satisfies me
G       Am   C      G
Crucify me, satisfy me
G       Am   C      G
Crucify me, satisfy me
G       Am   C      G
Crucify me, satisfy me
G       Am   C      G
Crucify me, satisfy me

Intro part again

Recuerda que #AcordesWeb.com se mantiene en línea gracias al aporte de nuestros anunciantes.

Toca una Canción al Azar de All Get Out



ACORDES

PIANO UKELELE
Em
G
C
Am



COMENTARIOS

Aún no hay comentarios,

¡escribe el primero!

Escribe un comentario o pregunta sobre esta canción




Más canciones de All Get Out

  • Ground Me
  • The Season
  • Burn Hot The Records
  • The Reason Youre Still Alive
  • My Friends
  • Lucky Bastard
  • Siguiente

    Em
    G
    C
    Am

    Nuestro servidor se demoró 0.31 segundos en generar esta página. Que velocidad!