Unidos por convicción
Alta Tension
Acordes

Subida por LESliekmj7



Otras Versiones

Cambiar Cifrado
Americano Latino

Cambiar Tonalidad
-1 +1

Partir Pantalla Imprimir FAQ

+A
-A
LETRA CON ACORDES
que tal pues aqui con esta cancion ojala les guste

Intro: D D A A H H G G x3 D A H G D A H

strofa D A B H A G


coro:
D A
Oi! Oi! Alta tensión
B H
Oi! Oi! Alta tensión
A G
Oi! Oi! Alta tensión
Unidos por convicción

[1:49] D A B H A G D A H


Interludio: [2:40] D D A A H H G


Outro:
D A A
e|---------------------------|---------------------------|.
h|---------------------------|-----------------7----7----|.
g|-7---7-7-7-7-7-7-9--7-9--7-|-9---9-9-9-9-9-9----9----9-|.
D|---------------------------|---------------------------|.
A|---------------------------|---------------------------|.
E|---------------------------|---------------------------|.

H H G
.|-----------------9-7----|-----------------9-7----|
.|-7---7-7-7-7-7-7-----10-|-8---8-8-8-8-8-8-----10-|
.|------------------------|------------------------|
.|------------------------|------------------------|
.|------------------------|------------------------|
.|------------------------|------------------------|


Akkorde:
D A B H G
e|---------------|
h|---------------|
g|-7--6--7--8--4-|
D|-7--7--8--9--5-|
A|-5--7--8--9--5-|
E|----5--6--7--3-|
y si tienen la tab de "skinhead" de steelcap pasamela porfa

mi correo es [email protected]

oi!oi!oi! skinheads


ACORDES PARA GUITARRA

PIANO UKELELE
D
A
G
B



COMENTARIOS

Aún no hay comentarios,

¡escribe el primero!

Escribe un comentario o pregunta sobre esta canción


TOP 20: Las más tocadas de Alta Tension

Ver más

Toca una Canción al Azar de Alta Tension
D
A
G
B

Nuestro servidor se demoró 0.06 segundos en generar esta página. Eso fue realmente muy rápido!