Politic Amagni (Acordes)

Amadou And Mariam

Subida por Nefertar


Imprimir FAQ
+A
-A

Texto

Desplazamiento

Transportador

Color de Fondo

Herramientas

TAMAÑO
TONALIDAD
+A
subir tono+ (F4)
-A
bajar tono- (F2)
-------------------------------------------------------------------------------

                             Politic Amagni - Amadou & Mariam
-------------------------------------------------------------------------------
Tabbed by: Davidunknown
Email: [email protected]

Tuning: Standard

The whole song is basically CG and Am with some guitar and piano fills.

You can play it anyway you like, I myself prefer:
     C        G          Am
e|---------------------------------------------------------------------------|
B|--------1---------3----------1--------1------------------------------------|
G|-----0--0------0--0-------2--2-----2--2------------------------------------|
D|---2---------0----------2--------2-----------------------------------------|
A|---3---------2----------0--------0-----------------------------------------|
E|---------------------------------------------------------------------------|


Couldn't find the lyrics and i'm not french..so anyway...yeah, you'll figure it out.

Link to their website: http://www.amadou-mariam.com/

HERRAMIENTAS ACORDESWEB:


LETRA DE LA CANCIÓN:

Ver la letra sola (sin acordes)

DESCARGAR PDF / IMPRIMIR CANCIÓN



ACORDES PARA

c
C
g
G
am
Am


TOP 20: Las más tocadas de Amadou And Mariam