Fallen From Grace

Amebix

Acordes

Monolith (1987)
Subida por Toni



Cambiar Cifrado
Americano Latino

Cambiar Tonalidad
-1 +1

Partir Pantalla Imprimir FAQ

+A
-A


Ver solo la LETRA
Album : Monolith

Contact me at *

. = palm mute
= slide down to


i wasn't going to sumbit this at first
because the riffs aren't all here.
But i then decided to submit it anyway because of
a request..so don't give it a low rating
because it's incomplete it was either this or
nothing.


riff 1(clean) this is played soflty
-------------------------------------|
---------------------------0---------|
---------0---------------------------|
-------0------0---------0-------0----| x3
-----9----------------7--------------|
---7--------7---7---5---------5---5--|


or
-------------------------------------|
---------------------------0---------|
---------0---------------------------|
-------0------0---------0-------0----| x3
-----9----------9-----7-----------7--|
---7--------7-------5---------5------|


riff 1a
-----------------------------------------|
-----------0-----------------------------|
---------0-------0--------0--------------|
-------0--------------------------0------| x1
-----9-----------------7--------7--------|
---7----------7------5--------5------5---|


riff 1b
--------------------------------|
------------------------0-------|
---------0-----------------0----|
-------0----0-------0-----------|
-----9------------7-------------|
---7------------5---------------|


riff 1b cont.
------------------------------------------------------|
-----------0------------------------0-----------0-----|
--------------0--------0------------------------------|
-------0-------------0----0-------0----0------0----0--|
-----9-------------7------------9-----------7---------|
---7-------------5------------7-----------5-----------|


riff 1b cont.
-------|
-------|
---0---|i can't tell what's going on
-------|at the end of this riff.. i just
-------|hear this note being played a couple times
-------|and a whole lot of bass


riff 2
-------------------------|
-------------------------|
-------------------------|
---9--9-9--7-------------| x3
---9--9-9--7--4-2-3-2-2--|
---7--7-7--5--2-0-1-0-0--|
. . . . .


riff 3
-------------------------|
-------------------------|
-------------------------|
---4---------5------7--7-| x1
---4---------5------7--7-|
---2-2222222-3--333-5--5-|
....... ...

riff 2 x3


riff 4
-----------------------------|
-----------------------------|
-----------------------------| x1
---4---------5------7--7--7--|
---4---------5------7--7--7--|
---2-2222222-3--333-5--5--5--|
....... ...

riff 5 this riff is played many times
through out the song
---------------------------|
---------------------------|
---------------------------|
---------------------------|
---9999999-79-9-7-7777777-|
---7777777-57-7-5-5555555-|
...

or

---------------------------|
---------------------------|
---------------------------|
---------------------------|
---9999999-77-999-7777777--|
---7777777-55-777-5555555--|
...
or

----------------------------|
----------------------------|
----------------------------|
----------------------------|
----999999-77-999-7777777---|
---5777777-55-777-5555555---|
...

i spaced the notes on these variations of riff 5
to make the numbers clearer

NUEVO FORO DE MÚSICA

¿Tienes alguna duda, consulta, pregunta, consejo o algo para compartir sobre esta canción?

¡Puedes abrir un hilo en el FORO para que la comunidad te ayude! Hacer una pregunta

ACORDES PARA GUITARRA

PIANO UKELELE


Las más tocadas de Amebix