The Creator's Pride 'the Anguish Of The Accused' (Acordes)

Amen Corner

Full Álbum: Darken In Quir Haresete (0)
Subida por Nataly

Compartir


Cambiar Cifrado
Americano Latino

Cambiar Tonalidad
-1 +1
Imprimir FAQ
+A
-A

Texto

Desplazamiento

Transportador

Color de Fondo

Archivos

TONALIDAD, TAMAÑO, CIFRADO, SCROL.

Nos renovamos: Ahora puedes cambiar TODO haciendo clic en ICONO de la Guitarra () que aparece en la parte inferior de esta página.


LETRA CON ACORDES

Intro:(B,A)
 
B                         A                        (solinho)
Tears have already dried, yes, for centuries I have benn looking up,
B                 A           (solinho)
Trying to search for what's mine...
B                      A      (solinho)  
Hate is eternal, the memories are terrible 
B                      A     (solinho)
They burn my body, they torture my spirit... 
 Ponte p/o verso(B,A,E,F#)
B                 A               (solinho)  
On, If I could take revenge on that shameless,
 B                         A
That one who calls himself fair
 (solinho)
But he isn't 
B           A     (solinho)
more than a proud old man...
 (B,A)    (F#,A,B)     (E) (F#,G)  riff 1 fica nessa base até entrar o solo principal
(Riff 1)
Torture, imprison and condemn for me, they are just like 
The water that quench my thirst, like the breeze that refresh... 
My name is Archangel Lucifer, God's son, 
Lord of mankind and the earth is my home...
Solo princiapl...depois repete riff 1  

Riff 1:
e|--------------------------------------------
b|--------------------------------------------
g|--------------------------------------------
D|--------------------------------------------
A|-------3-2----2-1---------------------------
E|-0-0-0----0-0----0-0-3-2-0-2-3-0------------
Solinho:
e|----------------------------------------------------
b|----------------------------------------------------
g|----------------------------------------------------
D|----------------------------------------------------
A|--7/9-7----------9----------------------------------
E|---------10-9-5--7----------------------------------

Video Clip de The Creator's Pride 'the Anguish Of The Accused'


ACORDES PARA GUITARRA

PIANO UKELELE
B
A
E
F#
G


TOP 20: Las más tocadas de Amen Corner


Toca una Canción al Azar de Amen Corner

Acordes

Cerrar
B
A
E
F#
G

22.15

x

144