Sólo para tí (Acordes)

Angela Leiva

Subida por grego

Compartir


Imprimir FAQ
+A
-A

Texto

Desplazamiento

Transportador

Color de Fondo

Archivos

-A
+A
Los Cadiz y Angela - Solo para ti

E/-----------------------------------------------
B/-----------------------------------------------
G/-----------2-4h6--4--2--------------2-4h6------
D/-2--3--4--------------------2--3--4------------
A/-------------------------------------------------
e/-----------------------------------------------


-----------------------------------------------------------
-----------------------------------------------------------
-----------4h6--4--2--------------2---6-6-6-4-2-1----
---2--3--4--------------------2-3-4---------------------
-----------------------------------------------------------
-----------------------------------------------------------




FA#m             MI
Eres todo lo que pedía
             RE
Lo q mi alma vacía
        LA
Quería sentir

FA#m                  MI
Eres lo que tanto esperaba
                  RE
Lo que en sueños buscaba
                 LA
Y  que en ti descubrí

SIm                MI
Tú has llegado a encender
             LA
Cada parte de mi alma
                 FA#m
Cada espacio de mi ser

                SIm
Ya no tengo corazón
               MI
Ni ojos para nadie
         RE
Solo para ti
         FA#m
Solo para ti



RE
Esto es en verdad
LA
Lo puedo sentir
SIm
Se que mi lugar
           MI
Es junto a ti…

Solo:

E/----------------------------------------------------------
B/--------------------------2h3-3-2----------------------------
G/----------------------------------4-2---2----------------------
D/--2h4--4--2---2-2h4-4-4---------------4--------4---2---------
A/------------5--------------------------------------------
e/-------------------------------------------------------


E/-----------------------------------------------/
B/-----------------------------------------------/
G/--1-2-1-----1-2-4-2-1-----1-2-1-----1-2-4-2-1--/
D/4-------4-4-----------4-4-------4-4------------/
A/-----------------------------------------------/
e/-----------------------------------------------/

esta parte x 2 veces perotermina en el asterisco la segunda vez
-------------------------/
-------------------------/
---2------------1-2-4*-2-1-/
-4---2-3-4-4--4-----------/
-------------------------/
-------------------------/

E/---------------------7---------------------------------
B/-7-9-10-9-7---7-9-10---10-9---7-9-10-9-7--7-9-10-10s12--
G/------------------------------------------------------
e/---------------------------------------------------------
A/------------------------------------------------------
e/---------------------------------------------------------

RASGUEO EN FA#m

FA#m                MI
Eres el amor de mi vida
               RE
El destino lo sabia
                 LA
Y hoy te puso ante mí

FA#m                   MI
Y cada vez que miro al pasado
                         RE
Es que entiendo que a tu lado
              LA
Siempre pertenecí


SIm                MI
Tú has llegado a encender
             LA
Cada parte de mi alma
                 FA#m
Cada espacio de mi ser

                SIm
Ya no tengo corazón
               MI
Ni ojos para nadie
         RE
Solo para ti
         FA#m
Solo para ti


RE
Esto es en verdad
LA
Lo puedo sentir
SIm
Se que mi lugar
           MI
Es junto a ti…


Solo:

Bueno loco aca esta la transcripción esta perfecta
Creo yo
Mandeme un mail a [email protected]
Cualkier cosa
gracias

HERRAMIENTAS ACORDESWEB:


LETRA DE LA CANCIÓN:

Ver la letra sola (sin acordes)

OTRAS VERSIONES DE LA MISMA CANCIÓN:

Ver. 2 Ver. 3 Ver. 4

DESCARGAR PDF / IMPRIMIR CANCIÓN



ACORDES PARA GUITARRA

PIANO UKELELE
E
B
D
A
F#m
E
D
A
Bm
G
D11


TOP 20: Las más tocadas de Angela Leiva


Acordes

Cerrar
E
B
D
A
F#m
E
D
A
Bm
G
D11

02.35

x

83