Por que te quiero
Angeles Negros
Acordes

Subida por Nicogala1984


Más Versiones
Ver. 2 Ver. 3 Ver. 4 Ver. 5

HERRAMIENTAS

Cambiar Cifrado
Americano Latino

Cambiar Tonalidad
-1 +1

Partir Pantalla Imprimir FAQ

+A
-A

LETRA CON ACORDES

¿Tu Guitarra esta Afinada? PRUEBA NUESTRO NUEVO AFINADOR

Intro: RE#-FA-SOL
(DOm-LA#-SOLm-LA#-DOm)

e-----------------------------------------8-6---6-8----
B--------6-8--------6-------6-7-8-------8-----8--------
G--5-7-8-----8--5-8---5---5-------7---7----------------
D-----------------------7-----------9------------------
A------------------------------------------------------
E------------------------------------------------------


A)
RE# - FA
Por que mi corazón late
SOL - DOm
Más fuerte cuando te veo
RE# - FA
El alma se me agiganta
SOL - DOm
Cada vez que en ti yo pienso


B)
SOL - FAm
Por que en mis tan solas noches
DOm LA#
Se me arrullan en lamentos
RE# - SOL
Me doy cuenta que eres tu
DOm - LA# (DOm-LA#-SOLm-LA#-DOm)
Aquella a quien tanto quiero


A)
Por que mi corazón llora
Cuando te invade un tormento
Y las estrellas no alumbran
Tanto como tu recuerdo

B)
Por que paso todo el día
Sumido en el embelesó
Me doy cuenta que eres tu
Aquella a quien tanto quiero


Intro: Recitado

A)
Por que mi corazón llora
Cuando te invade un tormento
Y las estrellas no alumbran
Tanto como tu recuerdo
Por que entre mis pensamientos
Siempre el tuyo va primero
Y me entristecen tus penas
Y me alegra tu contento

Esto se toca Mientras se recita.

e-----------------------------------------8---
B--------6-8--------6-------6-7-8-------8-----
G--5-7-8-----8--5-8---5---5-------7---7-------
D-----------------------7-----------9---------
A---------------------------------------------
E---------------------------------------------

e------8-6-----6-8-------8-10-------10-8---
B--8-8-----8-8-----10-10------12-12--------
G------------------------------------------
D------------------------------------------
A------------------------------------------
E------------------------------------------


B)
Por que si no estas conmigo
Mi penar se hace más lento
Me doy cuenta que eres tu
Aquella a quien tanto quiero
Me doy cuenta que eres tu
Aquella
A quien tanto quiero.


Un saludo a mis amados padres Maria & Mauricio
Esta canción va dedicada a ellos.

////////////////// ¿Te Animas? Sube una canción a este sitio. //////////////////

ACORDES PARA GUITARRA

PIANO UKELELE
D#
F
G
Cm
A#
Gm
A
B
Fm


COMENTARIOS

Carlos miranda .
Buenisima.

Esta canción ya tiene 1 comentarios... ¿y tu que opinas?

Escribe una pregunta, duda o comentario sobre esta canción, te responderemos a la brevedad.

Las canciones más tocadas de Angeles Negros

Toca una Canción al Azar de Angeles Negros
D#
F
G
Cm
A#
Gm
A
B
Fm

07.47


Nuestro servidor se demoró 0.02 segundos en generar esta página. Eso fue realmente muy rápido!