I Think It Should Be Free

Angelic Upstarts

Acordes

Last Tango in Moscow (1996)
Subida por Danicalero



Cambiar Cifrado
Americano Latino

Cambiar Tonalidad
-1 +1

Partir Pantalla Imprimir FAQ

+A
-A


tabbed by *


Intro

e---------------------------------------------------------------------|
B---------------------------------------------------------------------|
G--9------------------------------------------------------------------|
D--9---7----7----7----------------------------------------------------|
A--7---7----7----7----------------------------------------------------|
E------5----5----5----------------------------------------------------|

Feedback
e-----------------------------------------------------------------------|
B----5------------------------------------------------------------------|
G-----------------------------------------------------------------------|
D-----------------------------------------------------------------------|
A-----------------------------------------------------------------------|
E-----------------------------------------------------------------------|

Verse

e---------------------------------------------------------------------|
B---------------------------------------------------------------------|
G---9--9-9--9-9--9---------9---------------9--9-9---------------------|
D---9--9-9--9-9--9-9--9-9--9--7--7-7--7-7--9--9-9--9-9-9--------------|
A---7--7-7--7-7--7-9--9-9--7--7--7-7--7-7--7--7-7--9-9-9--------------|
E------------------7--7-7-----5--5-5--5-5----------7-7-7--------------|

Pre-Chorus

e---------------------------------------------------------------------|
B---------------------------------------------------------------------|
G--7-7--6-6--4-4--2-----7-7--6-6--4-4--2------------------------------|
D--7-7--6-6--4-4--2-----7-7--6-6--4-4--2------------------------------|
A--5-5--4-4--2-2--0-----5-5--4-4--2-2--0------------------------------|
E---------------------------------------------------------------------|

Chorus

e---------------------------------------------------------------------|
B---------------------------------------------------------------------|
G--5------------------5-----------------------------------------------|
D--5--5--5---3---5----5-----------------------------------------------|
A--3--5--5---3---5----3-----------------------------------------------|
E-----3--3---1---3----------------------------------------------------|

Solo

e---------------------------------------------------------------------|
B-9p7p5-9p7p5-9p7p5-9p7p5-9p7p5-9p7p5-9p7p5-9p7p5--9p7p5--------------|
G---------------------------------------------------------------------|
D---------------------------------------------------------------------|
A---------------------------------------------------------------------|
E---------------------------------------------------------------------|

e------------------------------------------12-----12-------12---------|
B--17b-17b-17b-17b-17b--17-15-14-12-11-12-----15b-----15b------15b----|
G---------------------------------------------------------------------|
D---------------------------------------------------------------------|
A---------------------------------------------------------------------|
E---------------------------------------------------------------------|

e--12-----------------------------------------------------------------|
B-----15-13--------15-17-18~--------------20~-------------------------|
G-----------14--12----------------------------------------------------|
D---------------------------------------------------------------------|
A---------------------------------------------------------------------|
E---------------------------------------------------------------------|

any comments/corrections contact me, please rate

NUEVO FORO DE MÚSICA

¿Tienes alguna duda, consulta, pregunta, consejo o algo para compartir sobre esta canción?

¡Puedes abrir un hilo en el FORO para que la comunidad te ayude! Hacer una pregunta

ACORDES PARA GUITARRA

PIANO UKELELE


Las más tocadas de Angelic Upstarts