Faded Glamour

Animals That Swim

Acordes

I Was the King, I Really Was the King (1998)
Subida por Jonathan23



Cambiar Cifrado
Americano Latino

Cambiar Tonalidad
-1 +1

Partir Pantalla Imprimir FAQ

+A
-A


Ver solo la LETRA
APPEAL: I am desperate for tabs to any of the songs from this hugely underrated band so
please let me know if you've cracked any of them.

...

Apparently this tab is too short so here's the solo from Another Girl, Another Planet to
pad things out a bit:

E B C#m A
E-------------------------------------------------------------|
B-------------------------------------------------------------|
G---9b11-9b11--11--9b11-11-119b11-11-9b11-11-9-11-9-----------|
D-------------------------------------------------------------|
A-------------------------------------------------------------|
E-------------------------------------------------------------|


E B C#m A
E------------------9----9-11-9-11-12-11-12-14-12-11-12-14-12--|
B--7s9-7-9-12-9-12---12---------------------------------------|
G-------------------------------------------------------------|
D-------------------------------------------------------------|
A-------------------------------------------------------------|
E-------------------------------------------------------------|


E B
E--17b19-19-19-19-19-19-19-18-18-18-18-18b17p15-17-15---------|
B-----------------------------------------------------17------|
G-------------------------------------------------------------|
D-------------------------------------------------------------|
A-------------------------------------------------------------|
E-------------------------------------------------------------|


C#m A
E--17-15-12-------15-12-------15-12-------15-12---------------|
B-----------15-12-------15-12-------15-12-------15-12---------|
G-------------------------------------------------------------|
D-------------------------------------------------------------|
A-------------------------------------------------------------|
E-------------------------------------------------------------|

E B
E--15-------------------------------------------------15-12---|
B-----17-17b19-17-17s19-17-17b19-17b19-17b19b17-15-12---------|
G-------------------------------------------------------------|
D-------------------------------------------------------------|
A-------------------------------------------------------------|
E-------------------------------------------------------------|


Cm3 A
E------------------------------------------|
B--15b17b15----15-14-12-14p12----b12-------|
G-----------14-15-14-12-14p12----b12-------|
D-----------------------------12----12-----|
A------------------------------------------|
E------------------------------------------|


E B
E-----------12----------12---------------------14-----------14-------|
B--------12----------12----------12 --------14----------14-----------|
G--14b16-------14b16-------14b16------16b18-------16b18-------16b18--|
D--------------------------------------------------------------------|
A--------------------------------------------------------------------|
E--------------------------------------------------------------------|


C#m A
E-----------16----------16---------------------17-----------17------17--------|
B--------16----------16----------16---------17----------17--------------17-12-|
G--18b20-------18b20-------18b20------19b21-------19b21-------19b21-----------|
D-----------------------------------------------------------------------------|
A-----------------------------------------------------------------------------|
E-----------------------------------------------------------------------------|



E B
E-----16-12----16-12----16-12----16-12----11----14-11----14-11----14-11-----|
B-----------12-------12-------12-------12----12-------12-------12-------12--|
G---------------------------------------------------------------------------|
D---------------------------------------------------------------------------|
A---------------------------------------------------------------------------|
E---------------------------------------------------------------------------|


C#m A
E-----16-12----16-12----16-12----16-12----17-12-0-17-12-0-18-13-0-19---|
B-----------12-------12-------12-------12------------------------------|
G----------------------------------------------------------------------|
D----------------------------------------------------------------------|
A----------------------------------------------------------------------|
E----------------------------------------------------------------------|

NUEVO FORO DE MÚSICA

¿Tienes alguna duda, consulta, pregunta, consejo o algo para compartir sobre esta canción?

¡Puedes abrir un hilo en el FORO para que la comunidad te ayude! Hacer una pregunta

ACORDES PARA GUITARRA

PIANO UKELELE


Las más tocadas de Animals That Swim