Arrancacorazones
Attaque77
Acordes

Subida por EROPhellut



Cambiar Cifrado
Americano Latino

Cambiar Tonalidad
-1 +1

Partir Pantalla Imprimir FAQ

+A
-A
LETRA CON ACORDES
transcripción en base del tema q fue gravado/filmado
para el programa "encuentro en el estudio" para la
formación de PowerTrio y puede ser tocado de forma
acústica como convencional
-------------------------------------------------------------------

Intro: en silencio hasta el final del puente

Puente:
Evitar, resistir,
tu hechizo de suave adicción,
como si fuera fácil
dominar mi sentir.

Y saber que te vas,
y saber que la abstinencia me puede,
todo se vuelve oscuro,
"y solo puedo decir."

G-|-----------------------------------------|
D-|------------------------------------5----|
A-|---5-5-5-5--3-3-3-3--2-2-2-2----5-7---7--|
E-|-----------------------------------------|


Estribillo:

G E B D C
G-|-------------------------------------|
D-|-------------------------------------|
A-|---------7(X8)-------5(X8)-3(X8)-/13-|
E-|---3(x8)-------7(X8)-----------------|

G E
Más, dame un poco más,
B
quiero intoxicarme en vos,
D C
arranca corazones.
G E
Hoy antes del final,
B
quiero intoxicarme en vooos,
B C
arranca corazones,
B
dame tu droga.

Puente: silencio solo la primera vuela luego deja sostenidos
nota de por medio(una si otra no)

Y penzar que una vez
me dijise terminemos todoo,
mi vida es un desastre
y no te quiero en él,

G~ D
pero al fin te seguí
E~ B
por un laberinto de espejos rotos
A~ D
y aparecí en un barrio,
A~ D
del que no puedo salir...

Estribillo:
G E
Más, dame un poco más,
B
quiero intoxicarme en vos,
D C
arranca corazones.
G E
Hoy antes del final,
B
quiero intoxicarme en vooos,
B C
arranca corazones,
B
dame tu droga.


pre-solo:
G E D C G E
G-|----------------------------------|
D-|----------------------------------|
A-|--------7---5----3--------7-------|
E-|----3-----------------3-----------|

Solo:

G-|-------------------------------------|
D-|----------2-3-2-----------5-7-5------| x2
A-|--3-3-3----------5-5-5---------------|
E-|-------------------------------------|


Estribillo: X3 o las veses q sean nesesarias
G E
Más, dame un poco más,
B
quiero intoxicarme en vos,
D C
arranca corazones.
G E
Hoy antes del final,
B
quiero intoxicarme en vooos,
B C
arranca corazones,


---------------------------- fin --------------------

~ : Vibrato o Sustein


ACORDES PARA GUITARRA

PIANO UKELELE



COMENTARIOS

Aún no hay comentarios,

¡escribe el primero!

Escribe un comentario o pregunta sobre esta canción


TOP 20: Las más tocadas de Attaque77

Ver más

Toca una Canción al Azar de Attaque77

Nuestro servidor se demoró 0.02 segundos en generar esta página. Eso fue realmente muy rápido!