Eu fico (Acordes)

Babado Novo

Subida por Irjaa

Compartir


Cambiar Cifrado
Americano Latino

Cambiar Tonalidad
-1 +1
Imprimir FAQ
+A
-A

Texto

Desplazamiento

Transportador

Color de Fondo

Archivos

Mudar para Português

TONALIDAD, TAMAÑO, CIFRADO, SCROL.

Nos renovamos: Ahora puedes cambiar TODO haciendo clic en ICONO de la Guitarra () que aparece en la parte inferior de esta página.


LETRA CON ACORDES

Bm7 C7M D7
     G Bm7 C7M Cm G C/D

E|------------------|-------------------------------|--2--2------------------|
B|------------------|--0-------0-1-3--------0--3----|--------3--3-0----------|
G|------------------|----2-0-2----------------------|------------------------|
D|------------------|-------------------------------|------------------------|
A|------------------|-------------------------------|------------------------|
E|------------------|-------------------------------|------------------------|

|------------------------------|-------------------------|---------------------------|-2--2--------|
|-1-0--1-0-1-0--------------0--|--1-0--1-0--1-0-3---1-0--|--0--------0-1-3------0--3-|-------3--3-0|
|--------------2-------0--2----|-------------------------|----2-0-2------------------|-------------|
|------------------------------|-------------------------|---------------------------|-------------|
|------------------------------|-------------------------|---------------------------|-------------|
|------------------------------|-------------------------|---------------------------|-------------|

|--8-7-5--------------------|
|---------8-----10--8~------|
|-----------8---------------|
|---------------------------|

G
Quero ser aquela
        C               G    C
Que um dia vai estar contigo
    Am
Preciso te dizer
     Cm
Nao cabe mais em mim
          G           Cm7 C7
O que eu sinto por você

    F
Já faz uma semana
         Fm
Que eu guardo na lembrança
    Em
Um riso seu

Um beijo seu
    A4/7  A7    Dm7       Em7
Um gosto que ficou em mim
     F7M        G
Eu guardo em mim

        C           G/B
Eu nao vou te procurar
           Gm/Bb
O nosso orgulho
               G/A 
Nao vai dar em nada
      A4/7 A7
Nada nada nao
       Dm7
Ta na cara que eu
              Em7
nao tenho ninguem
       F7M            G7
Se me liga fica tudo bem
     C  G7
Eu fico

       C           G/B
Eu nao vou te procurar
           Gm/Bb
O nosso orgulho
               G/A 
Nao vai dar em nada
      A4/7 A7
Nada nada nao
       Dm7
Ta na cara que eu
              Em7
nao tenho ninguem
       F7M            G7
Se me liga fica tudo bem
     C
Eu fico

G
Quero ser aquela
        C7              G    C7
Que um dia vai estar contigo
    Am
Preciso te dizer
     Cm
Nao cabe mais em mim
          G           Cm7 C7
O que eu sinto por você

    F
Já faz uma semana
         Fm
Que eu guardo na lembrança
    Em
Um riso seu

Um beijo seu
    A4/7  A7    Dm7       Em7
Um gosto que ficou em mim
     F7M        G
Eu guardo em mim

        C           G/B
Eu nao vou te procurar
           Gm/Bb
O nosso orgulho
               G/A 
Nao vai dar em nada
      A4/7 A7
Nada nada nao
       Dm7
Ta na cara que eu
              Em7
nao tenho ninguem
       F7M            G7
Se me liga fica tudo bem
     C  G7
Eu fico

       C           G/B
Eu nao vou te procurar
           Gm/Bb
O nosso orgulho
               G/A 
Nao vai dar em nada
      A4/7 A7
Nada nada nao
       Dm7
Ta na cara que eu
              Em7
nao tenho ninguem
       F7M            G7
Se me liga fica tudo bem
     C
Eu fico

C G/B Am         Bm        Dm7
       Fico porque te quero
              G7
Vem logo que eu te espero

     C           G/B
Eu nao vou te procurar
           Gm/Bb
O nosso orgulho
               G/A 
Nao vai dar em nada
      A4/7 A7
Nada nada nao
       Dm7
Ta na cara que eu
              Em7
nao tenho ninguem
       F7M            G7
Se me liga fica tudo bem
     C
Eu fico

Video Clip de Eu fico


ACORDES PARA GUITARRA

PIANO UKELELE
Bm7
Cmaj7
D7
G
Cm
C/D
C
Am
Cm7
C7
F
Fm
Em
A11
A7
Dm7
Em7
Fmaj7
G/B
Gm/Bb
G/A
G7
Bm


TOP 20: Las más tocadas de Babado Novo


Toca una Canción al Azar de Babado Novo

Acordes

Cerrar
Bm7
Cmaj7
D7
G
Cm
C/D
C
Am
Cm7
C7
F
Fm
Em
A11
A7
Dm7
Em7
Fmaj7
G/B
Gm/Bb
G/A
G7
Bm

20.56

x

296