Atomicum (Acordes)

Babasónicos

Subida por tarnoskijoel

Compartir


Cambiar Cifrado
Americano Latino

Cambiar Tonalidad
-1 +1
Imprimir FAQ

Para cambio de tonalidad, zoom, cambio de cifrado, haz clic en este botón


CONSEJO:

Afina tu guitarra antes de tocar. Prueba nuestro afinador en linea.

+A
-A

Texto

Desplazamiento

Transportador

Color de Fondo

Archivos

TONALIDAD, TAMAÑO, CIFRADO, SCROL.

Nos renovamos: Ahora puedes cambiar TODO haciendo clic en ICONO de la Guitarra () que aparece en la parte inferior de esta página.


LETRA CON ACORDES

E|----------------------------------------|--| varias veces 
B|----------------------------------------|--
G|----------------------------------------|--
D|----------2-2-2-2-2-2--0-2-0-2----------|--
A|----------2-2-2-2-2-2--0-2-0-2----------|--
E|--12/0----------------------------------|--
                    PM...... 
Verso: 
Amor...                            cruel desconocido... 
E|-------------------------|--|----------------------------
B|-------------------------|--|----------------------------
G|-------------------------|--|----------------------------
D|---2-2-2-2-2-2--0-2-0-2--|--|---5--5--5---7-7--5--5--2---
A|---2-2-2-2-2-2--0-2-0-2--|--|---5--5--5---7-7--5--5--2---
E|-------------------------|--|---3--3--3---5-5--3--3--0---
           PM...... 

(Estribillo) 
Sin vacilar?                              sin vacilar? 
E|--------------------------------------|-------------------
B|--------------------------------------|-------------------
G|---------------------5-5-5-5---5------|-------------------
D|----7-7-7-7---7--5---5-5-5-5---5-5-7--|---7-7-7-7--5------
A|----7-7-7-7----------3-3-3-3---3-5-7--|---7-7-7-7--5------
E|----5-5-5-5----------------------3-5--|---5-5-5-5--3------

Repite intro 

Sacude el viento entre tus rocas? 
E|------------------------------------|--| **A5 varias veces 
B|------------------------------------|--
G|------------------------------------|--| x2 
D|---2---5---7------------------------|--
A|---2---5---7------------------------|--
E|---0---3---5**----------------------|--

Vértigo al caer vas a sentir? 
E|---------------------------
B|---------------------------
G|---------------------------
D|----7----5----2------------
A|----7----5----2------------
E|----5----3----0------------

(Estribillo) 

Sin vacilar? x2                              sin vacilar? 
E|--------------------------------------|-------------------
B|--------------------------------------|-------------------
G|---------------------5-5-5-5---5------|-------------------
D|----7-7-7-7---7--5---5-5-5-5---5-5-7--|---7-7-7-7--5------
A|----7-7-7-7----------3-3-3-3---3-5-7--|---7-7-7-7--5------
E|----5-5-5-5----------------------3-5--|---5-5-5-5--3------

Solo:                                                X3 
E|-------------------------------------
D|-----------------15------------------
G|--12/14---12/14-----15-15-15-15-15---
D|-------------------------------------
A|-------------------------------------
E|-------------------------------------

|-----------------------------------------|-------------
|-----------------------------------------|-------------
|-14/12-----------------------------------|-------------
|-------14/12---12-14-12-14-12------------|-------------
|--------------------------------14-14----|---12***-----
|-----------------------------------------|-------------

*** dejar vibrar 


Video Clip de Atomicum


ACORDES PARA GUITARRA

PIANO UKELELE


TOP 20: Las más tocadas de Babasónicos


Acordes

Cerrar

07.32


208