Malon (Acordes)

Babasónicos

Subida por MasterNew

Compartir


Imprimir FAQ
+A
-A

Texto

Desplazamiento

Transportador

Color de Fondo

Archivos

-A
+A
Autor: G. Manelli, A. Rodriguez 

malon,malon,malon,malon diabolico (x4) 

e|--------------------|--------------------
B|--------------------|--------------------
G|--------------------|--------------------|  x2 
D|-0-0--3--05--03--05-|-0-0--3--05--03--0--
A|--------------------|------------------3-
E|--------------------|--------------------

se van a los montes, nadan los rios 
miran la noche, entra a un desierto 
se desespera un sodor, toma su asiento futbol 
toda la tierra que, todo alimenta 

malon,malon,malon,malon diabolico (x4) 

e|--------------------|--------------------
B|--------------------|--------------------
G|--------------------|--------------------|  x2 
D|-0-0--3--05--03--05-|-0-0--3--05--03--0--
A|--------------------|------------------3-
E|--------------------|--------------------

se van a los montes, nadan los rios... 

malon,malon,malon,malon diabolico (x4) 

soy un nativo sirren sanguinarios 
lo dudaran de sacarte del paso 
lo pisaran como un buey enojado 
sera mejor que corras ya sal de su pasto 

malon,malon,malon,malon diabolico (x4) 

les gusta el moss, 
me gusta revolcarme entre la gente 
y nada me gusta el moss 
me gusta revolcarme entre la gente llamale 
hicimos caos, moscaos, moscaos, ooo 
moscaos, moscaos, moscaos, ooo 

malon,malon,malon,malon diabolico (x2) 
malon,malon,malon,malon 

e|-----------0---0----
B|----0--3-----3------
G|--------------------|  x4 
D|--------------------
A|--------------------
E|--------------------

e|--------0---0---3-3-|-----------0---0----
B|-0--3-----3---------|----0--3-----3------
G|--------------------|--------------------
D|--------------------|--------------------
A|--------------------|--------------------
E|--------------------|--------------------

e|--------0---0---3-3-|-----------0-3-0----
B|-0--3-----3---------|----0--3------------
G|--------------------|--------------------
D|--------------------|--------------------
A|--------------------|--------------------
E|--------------------|--------------------

malon,malon,malon,malon diabolico (x4) 

malon,malon,malon,malon diabolico (x4) --> durante estas 4 veces que hace el 
                                           estribillo, hace: 

                                           e|--3--0---------0----
                                           B|-------3--0--3---3--
                                           G|--------------------|  x2 
                                           D|--------------------
                                           A|--------------------
                                           E|--------------------

                                           e|----0--3---0---0----|-----------0-3-0----
                                           B|-------------3------|----0--3------------
                                           G|--------------------|--------------------
                                           D|--------------------|--------------------
                                           A|--------------------|--------------------
                                           E|--------------------|--------------------|

Video Clip de Malon


ACORDES PARA GUITARRA

PIANO UKELELE


TOP 20: Las más tocadas de Babasónicos


Acordes

Cerrar

05.34

x

193