Confundismo (Acordes)

Babasónicos

Subida por Naaraytz

Compartir


Cambiar Cifrado
Americano Latino

Cambiar Tonalidad
-1 +1
Imprimir FAQ

Para cambio de tonalidad, zoom, cambio de cifrado, haz clic en este botón


CONSEJO:

Afina tu guitarra antes de tocar. Prueba nuestro afinador en linea.

+A
-A

Texto

Desplazamiento

Transportador

Color de Fondo

Archivos

TONALIDAD, TAMAÑO, CIFRADO, SCROL.

Nos renovamos: Ahora puedes cambiar TODO haciendo clic en ICONO de la Guitarra () que aparece en la parte inferior de esta página.


LETRA CON ACORDES

Intro: 

Eb|----------------------------------------- 
Bb|----------------------------------------- 
Gb|------------------------5h7-5------------ 
Db|-------------------------------4--------- 
Ab|-4-6-9---9-8-4----4-6-9----------4-4h6-9- 
Eb|----------------------------------------- 

Eb|---------------------------- 
Bb|---------------------------- 
Gb|--------------5h7-5--------- 
Db|--------------------4------- 
Ab|-9-8-4--4-6-9---------4-6-9- 
Eb|---------------------------- 


VERSO: 

Eb|--------------------------------- 
Bb|--------------------------------- 
Gb|----------------5h7-5------------   Todos saben q´t kiero 
Db|----------------------4----------   no tengo suerte, 
Ab|--9-8-4--4-6-9----------4-4h6-9--   tengo malos deseos. 
Eb|--------------------------------- 

Eb|--------------------------------- 
Bb|----------------5h7-5---5h7-5---- 
Gb|----------------------4-------4--   Todos saben q´t kiero 
Db|---------------------------------   q´lo hare de todas formas, 
Ab|--9-8-4--4-6-9-------------------   y lo hare al kualkier precio. 
Eb|--------------------------------- 

CORO: 

Eb|------------------------ 
Bb|------------------------ 
Gb|------------------------ Te digo a toda costa un 
DB--4-4-4-4--------------- un confundismo feo 
Ab|-----------9-8-4--4-6-9- (mientras no sueltes mi 
Eb|------------------------ mano). 

Eb|---------------- 
Bb|---------------- 
Gb-5h7-5----------  Que el vacío nos devora. 
Db|-------4-4h6-4-- 
AB---------------- 
Eb|---------------- 

Eb|------------------------------------ 
Bb|-2h4-2-2-7-------------------------- Cuando el viento cobra 
Gb|------------------------------------ yo le pago en besos 
Db|-----------12-10-10-5-5---12-10-10-5 siento tus labios en 
Ab|------------------------------------ mis labios morir.    (x2) 
Eb|------------------------------------ 

Todos saben que te quiero 
Que he cruzado descalzo 
los salares en invierno. 

Todos saben que te quiero 
He tomado la planta 
he resuelto el misterio. 

Practico convencerme con un vicio nuevo 
(Mientras no sueltes mi mano) 
Que el vacío nos devora. 

Cuando el viento cobra 
Yo le pago en besos 
Siento tus labios en mis labios. 

Siento tus labios en mis labios morir.... (lo repite muchas veces) 

Eb|------------------------------------------------------------------- 
Bb|-2h4-7--2-2h4-7-4-2---------------------------2h4-4-4-2--2h4-4-4-2- 
Gb|------------------------------------------------------------------- 
Db|--------------------12-10-10-5-5--12-10-10-5----------------------- 
Ab|------------------------------------------------------------------- 
Eb|------------------------------------------------------------------- 

OUTRO: 
Eb|-----------------------------------------1-|
Bb|-----7--------5--------3----------5------1-
Gb|---7---7----5---5----3---3------5---5----2-|
Db|-----------------------------------------3-
Ab|-5--------3--------1--------1/3----------3-
Eb|-----------------------------------------1-|

Video Clip de Confundismo


ACORDES PARA GUITARRA

PIANO UKELELE


TOP 20: Las más tocadas de Babasónicos


Acordes

Cerrar

00.20


183