Mareo (Acordes)

Babasónicos

Subida por vcorvalan

Compartir


Imprimir FAQ
+A
-A

Texto

Desplazamiento

Transportador

Color de Fondo

Archivos

-A
+A
Hay algunos detalles en los que aún trabajo para mejorarla 
pero para mi suena bien, la he publicado para 2 guitarras 
(en lugar del teclado), G toca los acordes principales 
y G2 los requintos; ojala les ayude. Disfruten. 

Intro 
(Al fondo se escuchan los acordes arpegiados, solo improvisa 
un poco) 

                   Em                    Am             D 
e|----------------------------------------------------------
B|----------------------------------------------------------
G|-4-2-0-----------(4~)------0--------0--(5~)--0-2-0---(7~)-
D|-------4---2-4-2-------2-4--4---2-4----------------4------
A|----------------------------------------------------------
E|----------------------------------------------------------

                              b7                    Em 
e|----------------------------------------------------------
B|----------(3~)-------3--0-(4~)-----4-5-8-7---5-7-5--------
G|--7-5-4t--------------------------------------------------
D|----------------------------------------------------------
A|----------------------------------------------------------
E|----------------------------------------------------------

G 
e|-0~-
B|-0~-
G|-0~-
D|-2~-
A|-2~-
E|-0~-

          Em                    Am 
Me da vergüenza y no sé si decirtelo 
           D        B7          Em 
si se me nota no levanto la mirada 
        Em                       Am 
y me derrito si te tengo cara a cara 
                       B7                   Em 
si te encuentro a solas vuelvo a creer en Dios 

                     Am 
Es que me mata tu ausencia 
D                    Em 
y haberte querido tanto 
                             Am 
porque el recuerdo no es real 

B7                    Em 
estemos juntos otra vez 

           Em                       Am 
El tiempo arrasa secuestrando mi pudor 
           D           B7               Em 
cobro confianza y te dirijo unas palabras 
             Em                         Am 
caigo al abismo que el presente nos depara 
                 B7                       Em 
y febril en la caída pregunto ¿qué nos pasó? 

                       Am 
Y es que me mata tu ausencia 
D                    Em 
y haberte querido tanto 
                             Am 
porque el recuerdo no es real 

B7                    Em 
y estemos juntos otra vez 

                    Em                    Am            D 
e|----------------------------------------------------------
B|----------------------------------------------------------
G|-4-2-0-----------(4~)------0--------0--(5~)--0-2-0---(7~)-
D|-------4---2-4-2-------2-4--4---2-4----------------4------
A|----------------------------------------------------------
E|----------------------------------------------------------
                              b7                    Em 
e|----------------------------------------------------------
B|----------(3~)-------3--0-(4~)-----4-5-8-7---5-7-5~-------
G|--7-5-4t--------------------------------------------------
D|----------------------------------------------------------
A|----------------------------------------------------------
E|----------------------------------------------------------

*(aqui hay un punteado de fondo en el que aun estoy trabajando 
y que suena hasta terminar la cancion) 
e|----------------------------------------------------------
B|----------------------------------------------------------
G|----------------5-4-5~------9--2--9/5-5/45b---------------
D|---2-4-5-4-2-5--------------------------------------------
A|----------------------------------------------------------
E|----------------------------------------------------------

e|----------------------------------------------------------
B|----------------------------------------------------------
G|---9--2--9/5-4-2b3r2~-----4-2-0---------------------------
D|-------------------------------------4-2-4-2~-2-----------
A|----------------------------------------------------------
E|----------------------------------------------------------

                       Am 
Y es que me mata tu ausencia 
D                    Em 
y haberte querido tanto 
                             Am 
porque el recuerdo no es real 

B7                    Em 
y estemos juntos otra vez 

FIN 

Key: 
/ - Slide 
b - half bend 
~ - Dejar sonar/vibrato 
h - Hammer-on 
t - Tremelo

Video Clip de Mareo


ACORDES PARA GUITARRA

PIANO UKELELE
Em
Am
D
G
B7


TOP 20: Las más tocadas de Babasónicos


Acordes

Cerrar
Em
Am
D
G
B7

05.34

x

146