Girls Of Mars
Baby Universal
Acordes

Subida por Sissywonga



Cambiar Cifrado
Americano Latino

Cambiar Tonalidad
-1 +1

Partir Pantalla Imprimir FAQ

+A
-A
------------------------------------------------------------------------------

                          GIRLS OF MARS - Baby Universal
------------------------------------------------------------------------------
Tuning: DGCFAD


CHORDS:

D|-----|-----|-----|-----|------|------|-----|-----|
A|--2--|--8--|--7--|--7--|--12--|--12--|--5--|--4--|
F|-----|-----|-----|-----|------|------|--2--|-----|
C|--2--|--9--|--7--|--7--|--12--|--12--|-----|--4--|
G|--0--|--7--|--5--|-----|--10--|------|--4--|--2--|
D|-----|--0--|-----|--7--|------|--12--|-----|-----|

    A    Em     D    B7     G      E7     A     B
                    (no3)         (no3)



[VERS1]
         A                     Em
shark eye and the girls of mars
          A                 Em
play bones on the broken boulevard
        A                 Em
we`re rabbits in iron cars
      A                Em
pieces of a shattered universe
    D         B7
no shoulder no
      D     B7
bent over so
       D     B7     D     B7~
gone under oh



[VERS2]
     Em                        A
bloodwork on the midnight shore
           Em              A
we fight in the shadows of the backdoors
   Em                  A
as we see the only star
          Em                 A
that shines on the broken boulevard



[REFRAIN]
G       E7
          D         B7
when she dances her feet leave the ground
G       E7
            D          B7
and there`s no twisted tongue speaking now
G       E7
        D             B7
and oh it makes the softest of sounds
G       E7
        D   A    B
when we all come down



[GUITAR-SOLO]
 A                        Em                    A                   Em
|------------------------|---------------------|-------------------|---------------|
|-----------------------bend-------------------|--------12---------|---------------|
|------------12-------16-|-17-16---------12-14-|-----------12------|---------------|
|------14-------14-------|---------------------|--------------10-9-|---------------|
|---12----12-------12----|---------------------|-------------------|---------------|
|------------------------|---------------------|-------------------|---------------|


 A                        Em                   A                       Em
|-----14b15----b15-14-12-|-14-----------------|-----------------------|------------|
|------------------------|--------------------|-----------13----------|------------|
|------------------------|----14--------------|-----12-14----14-------|------------|
|------------------------|--------------12-14-|-----------------14-12-|------------|
|------------------------|--------------------|-----------------------|------------|
|------------------------|--------------------|-----------------------|------------|



       D     B7
forgive it oh
       D     B7
forgive it oh



[REFRAIN]
        G           E7
[girls] ahhhhhhhhhh-ahhhhhhhhhh
            D           B7
when she dances her feet leave the ground
        G           E7
[girls] ahhhhhhhhhh-ahhhhhhhhhh
            D                B7
and there`s no twisted tongue speaking now
        G           E7
[girls] ahhhhhhhhhh-ahhhhhhhhhh
       D               B7
and it does make the softest of sounds
        G           E7
[girls] ahhhhhhhhhh-ahhhhhhhhhh
        D   A    B
when we all come down

***
**
*

ACORDES PARA GUITARRA

PIANO UKELELE
A
Em
D
B7
G
E7
B


COMENTARIOS

Aún no hay comentarios,

¡escribe el primero!

Escribe una pregunta, duda o comentario sobre esta canción, te responderemos a la brevedad.

Las más tocadas de Baby Universal

Toca una Canción al Azar de Baby Universal
A
Em
D
B7
G
E7
B