Compartir


Imprimir FAQ
+A
-A

Texto

Desplazamiento

Transportador

Color de Fondo

Archivos

-A
+A
Intro: Am7 Bm7/5- E7 Am  Bm7/5- E7 Am

E|-12-10-8-7-5-----------10-7-8-7-------------------|
B|--------------------------------10-9--------------|
G|-------------7h9-10-9----------------9/10-9~------|
D|--------------------------------------------------|
A|--------------------------------------------------|
E|--------------------------------------------------|

E|------------------------------------------10-7-8-7-------------|
B|--------------------------------------------------10-9---------|
G|-7h9-10-9-10-9--9-10-9-7--9-10-9-7-9-10-9--------------9/10-9~-|
D|---------------------------------------------------------------|
A|---------------------------------------------------------------|
E|---------------------------------------------------------------|

E|-----------------------10-8-----|
B|----------------------------10--|
G|-7h9-10-9-10-9--9-10-9----------|
D|--------------------------------|
A|--------------------------------|
E|--------------------------------|

               G
Maria Tomando banho
G/F                  C
nas águas claras do rio
                Bm7/5-
Seu corpo jovem moreno
E7                    Am
não sente o rigor do frio

                       G
Boiando à flor d?água vai
G/F                   C
embalando os sonhos seus
                Bm7/5-
Eu olhando alimentando
E7                    Am
os sonhos que são bem meus

                   G
Hei de casar com Maria
G/F              C
na festa da padroeira
                    Bm7/5-
Deixar morrendo de inveja
E7             Am
as moças namoradeiras

Am/G  G/F  C  Bm7/5-  E7  Am ) (2x)

                   G
Já vejo o corpo moreno
G/F                  C
de rendas brancas vestido
                 Bm7/5-
E botões de laranjeiras,
E7                Am
pondo o cabelo florido

               G
Maria, minha Maria,
G/F                  C
vou dar-te tudo que tenho
                   Bm7/5-
Meus canaviais tão lindos,
E7                 Am
minha senhora de engenho

                  G
Hei de casar com Maria
G/F              C
na festa da padroeira
                    Bm7/5-
Deixar morrendo de inveja
E7             Am
as moças namoradeiras

Video Clip de Flor D'água


ACORDES PARA GUITARRA

PIANO UKELELE
Am7
Bm7b5
E7
Am
G
G/F
C
Am/G


TOP 20: Las más tocadas de Banda de Pau e Corda


Acordes

Cerrar
Am7
Bm7b5
E7
Am
G
G/F
C
Am/G

16.06

x

199