Compartir


Imprimir FAQ
+A
-A

Texto

Desplazamiento

Transportador

Color de Fondo

Archivos

-A
+A
Introdução: A
            C#m7  D  A
            C#m7 (Riff)

E|-----------------------------------------------------|
B|------------------------------10-------7-------------|
G|-6---6---6---7---7--9----9/11-----117----76--------|
D|-------7-------7-------------------------------------|
A|-----------------------------------------------------|
E|-----------------------------------------------------|


Primeira Parte:

     A           D
Não vou ficar sozinha
                           A
É de ladinho que eu lhe acho
                 D
Não vou ficar sozinha
                           A
É de ladinho que eu lhe acho


Segunda Parte:

E|-----------------------------------------------------|
B|-----------------------------------------------------|
G|-----------------------------------------------------|
D|-4---------------------4-----------------------------|
A|---7-4-5~---7-5-4--------7-4-5~---7-5-4--------------|
E|------------------5~--------------------5~-----------|

                      D
Vou invadir o teu mundo
                    A
Vou beber da tua água
                   D
Teu gostinho no copinho
                  A
Me deixa apaixonada

                      D
Vou invadir o teu mundo
                    A
Vou beber da tua água
                   D
Teu gostinho no copinho
                  A
Me deixa apaixonada

E|--97--7-7/-9---9-10--12-12--------------------------|
B|-109--9-9/10--10-12--14-14~-------------------------|
G|-----------------------------------------------------|
D|-----------------------------------------------------|
A|-----------------------------------------------------|
E|-----------------------------------------------------|


Terceira Parte:

              C#m7
O teu cheiro vem
     D          A
Invadindo a praça
             C#m7
Sem convite vem
       D           A
E não fecha as portas

              C#m7
O teu cheiro vem
     D          A
Invadindo a praça
             C#m7
Sem convite vem
       D           A
E não fecha as portas


Quarta Parte:

                 D
Não vou ficar sozinha
                           A
É de ladinho que eu lhe acho
                 D
Não vou ficar sozinha
                           A
É de ladinho que eu lhe acho


Quinta Parte:

E|-----------------------------------------------------|
B|-----------------------------------------------------|
G|-----------------------------------------------------|
D|-4---------------------4-----------------------------|
A|---7-4-5~---7-5-4--------7-4-5~---7-5-4--------------|
E|------------------5~--------------------5~-----------|

                      D
Vou invadir o teu mundo
                    A
Vou beber da tua água
                   D
Teu gostinho no copinho
                  A
Me deixa apaixonada

                      D
Vou invadir o teu mundo
                    A
Vou beber da tua água
                   D
Teu gostinho no copinho
                  A
Me deixa apaixonada

E|--97--7-7/-9---9-10--12-12--------------------------|
B|-109--9-9/10--10-12--14-14~-------------------------|
G|-----------------------------------------------------|
D|-----------------------------------------------------|
A|-----------------------------------------------------|
E|-----------------------------------------------------|


Sexta Parte:

              C#m7
O teu cheiro vem
     D          A
Invadindo a praça
             C#m7
Sem convite vem
       D           A
E não fecha as portas

              C#m7
O teu cheiro vem
     D          A
Invadindo a praça
             C#m7
Sem convite vem
       (Riff)
E não fecha as portas


Solo: F#m  Bm  (3x)
      E  A

E|-17--14-------17--14---------------------------------|
B|--------17-14--------17-14-14b19r17~-----------------|
G|-----------------------------------------------------|
D|-----------------------------------------------------|
A|-----------------------------------------------------|
E|-----------------------------------------------------|

E|----------------------------------14-17p14-16~--14---|
B|-14---17--14--17---16---14---14----------------------|
G|-----------------------------------------------------|
D|-----------------------------------------------------|
A|-----------------------------------------------------|
E|-----------------------------------------------------|

E|-------------------------------------14--14----------|
B|----------------------------------14-----------------|
G|----------------14-16p14----14-16--------------------|
D|-16p14----14-16----------16--------------------------|
A|-------16--------------------------------------------|
E|-----------------------------------------------------|

E|-------17-17-----------------------------------------|
B|-17/19---------------17-17---/17-19-19---------------|
G|---------------16/18---------------------------------|
D|-----------------------------------------------------|
A|-----------------------------------------------------|
E|-----------------------------------------------------|

E|-----------------------------------------------------|
B|-19-17-19-17-----------------------------------------|
G|-------------18-16-----------------------------------|
D|-------------------19--------------------------------|
A|-----------------------------------------------------|
E|-----------------------------------------------------|


Sétima Parte:

                 D
Não vou ficar sozinha
                           A
É de ladinho que eu lhe acho
                 D    (Riff)  A
Não vou ficar sozinha

E|-2----------------------------------------|
B|-3----------------------------------------|
G|-2----------------------------------------|
D|-4----4-2---------------------------------|
A|-5--------5-4-2---------------------------|
E|----------------5-2-5---------------------|

                 D
Não vou ficar sozinha
                           A
É de ladinho que eu lhe acho
                 D
Não vou ficar sozinha
                           A
É de ladinho que eu lhe acho


Oitava Parte:

                      D
Vou invadir o teu mundo
                    A
Vou beber da tua água
                   D
Teu gostinho no copinho
                  A
Me deixa apaixonada

                      D
Vou invadir o teu mundo
                    A
Vou beber da tua água
                   D
Teu gostinho no copinho
                  A
Me deixa apaixonada


Nona Parte:

              C#m7
O teu cheiro vem
     D          A
Invadindo a praça
             C#m7
Sem convite vem
       D           A
E não fecha as portas

              C#m7
O teu cheiro vem
     D          A
Invadindo a praça
             C#m7
Sem convite vem
       D           A
E não fecha as portas


Final:

           
De lado eu vou
            D
De lado eu vou

De lado eu vou
          A
Com meu amor

Com meu amor
          D   A
Com meu amor

De lado eu vou
            D
De lado eu vou

De lado eu vou
          A
Com meu amor

Com meu amor
          D
Com meu amor


Final:

               A
E|-------------5--5-5-----------------------|
B|-10--8--6----5--5-5-----------------------|
G|-------------6--6-6-----------------------|
D|--7--5--3----7--7-7-----------------------|
A|-------------7--7-7-----------------------|
E|-------------5--5-5-----------------------|

Video Clip de De Ladinho


ACORDES PARA GUITARRA

PIANO UKELELE
A
C#m7
D
F#m
Bm
E


TOP 20: Las más tocadas de Banda Eva


Toca una Canción al Azar de Banda Eva

Acordes

Cerrar
A
C#m7
D
F#m
Bm
E

11.27

x

160