Aquellos Ojos Verdes

Bandera Latina

Acordes

Subida por claujavi



Cambiar Cifrado
Americano Latino

Cambiar Tonalidad
-1 +1

Partir Pantalla Imprimir FAQ

+A
-A


Ver solo la LETRA
Aquellos Ojos Verdes

Artist: Bandera Latina

This is an old Cuban song, composed in 1929. The intro features an almost
'jazzy' chord/melody which has some great harmonies.
The tempo is very laid back and the rhythm is that of a bolero.


[Intro]

    Cm                       F7

e|--10--10--10---8-10--8--|--10--10--8-10--9--|
B|---8---8---8---8--8--8--|---8---8--8--8--8--|
G|---8---8---8---8--8--8--|---8---8--8--8--8--|
D|------------------------|-------------------|
A|------------------------|-------------------|
E|------------------------|-------------------|

    Bbmaj7                    Gm

e|---8---8---8---6--8--6--|---8---8--6--8--7--|
B|---6---6---6---6--6--6--|---6---6--6--6--6--|
G|---7---7---7---7--7--7--|---7---7--7--7--7--|
D|------------------------|-------------------|
A|------------------------|-------------------|
E|------------------------|-------------------|

   Cm              F7

e|--8--8-5-8-5--|--10--10--------10--|
B|--6--6-6-6-6--|---8---8--8-10--10--|
G|--7--7-7-7-7--|---8---8--8--8--10--|
D|--------------|--------------------|
A|--------------|--------------------|
E|--------------|--------------------|

    Bbmaj7        Cm     F7

e|--13-13-13--13-10--|--13-----------|
B|--11-11-11--11--9--|--11-----------|
G|--12-12-12--12-10--|--12-----------|
D|-------------------|---------------|
A|-------------------|---------------|
E|-------------------|---------------|

              Bbmaj7
Aquellos ojos verdes
de mirada serena,
dejaron en mi alma
Dbdim         F7
eterna sed de amar.

Cm         F7
Anhelos de caricias,
de bessos y ternuras,
  Cm        G7
y todas las dulzuras
    C7      F7
que podrian brindar.

              Bbmaj7
Aquellos ojos verdes,
serenos como un lago,
                 G7
en cuyas quietas aguas
          Cm   G7  Cm
un DíA me miré
            Eb       Ebm
No saben la tristeza
                   Bbmaj7  G7
que en mi alma han dejado
              C7
Aquellos ojos verdes
    F7       Bbmaj7
que yo nunca olvidaré.

[Solo] (same as intro)

              Bbmaj7
Aquellos ojos verdes,
serenos como un lago,
                 G7
en cuyas quietas aguas
          Cm   G7  Cm
un DíA me miré
            Eb       Ebm
No saben la tristeza
                   Bbmaj7  G7
que en mi alma han dejado
              C7
Aquellos ojos verdes
    F7       Bbmaj7
que yo nunca olvidaré.

ACORDES PARA GUITARRA

PIANO UKELELE
Cm
F7
Bbmaj7
Gm
Dbdim
G7
C7
Eb
Ebm


Las más tocadas de Bandera Latina

Cm
F7
Bbmaj7
Gm
Dbdim
G7
C7
Eb
Ebm