Pura Sangre
Barón Rojo
Acordes

Subida por Roberto



Más Versiones de esta Canción | Ver. 2 |

Cambiar Cifrado
Americano Latino

Cambiar Tonalidad
-1 +1

Partir Pantalla Imprimir FAQ

+A
-A

LETRA Y ACORDES

tonos
F# A5 A#5 D7 E5 G#5 B5 C#5
e--------------0--------------------
B--------------3--------------------
G-----2--------2--------------------
D-4---2--8-----0---2----6---9--11---
A-4---0--8---------2----6---9--11---
E-2------6---------0----4---7--9----


INTRO
A5 E
e----------------------------------------------0-----0--
B-7-7-7-5-5-5-4-4-0-0-4-4-5-5-7-7s5-5-5-4-4-4--2-----0--
G-4-4-4-4-4-4-4-4-4-4-4-4-4-4-4-4s2-2-2-2-2-2--2--1--1--
D----------------------------------------------2--2-----
A----------------------------------------------0--2-----
E-------------------------------------------------0-----

BASE
F#5 A5 E5 F#5 A5 E5 B5
e-------------------------------------------
B-------------------------------------------
G-----2-----------------------2-2-------4v--
D-4-4-2---2-------------4--4--2-2--2-2--4v--
A-4-4-0---2---5-4-2b0-4-4--4--0-0--2-2--2v--
E-2-2-----0-------------2--2-------0-0------

BASE (1 por estrofa)
Se recorre el escenario, cien mil veces sin parar
tiene aspecto de malvado y a la vez de colegial.
Gesticula con descaro, provocando tu reacción
y se quita la corbata O se baja el pantalón.

G#5 A#5
Te hace vibrar y enloquecer
B5 C#5
te hace cantar "highway to hell"
G#5 A#5
un dios del rock, puro metal
B5 C#5
sin concesión, oh yeah!!!.

B5
Dime tu, dime tu quien
D7 A5 E5
ha inspirado esta imagen
B5
Dime tu, dime tu quien
D7 A5 E5
es un pura sangre.

BASE
Aunque no tiene apariencia,para ser un cazador
nos convierte en su presa,nos captura sin dolor.
Te conducirá al infierno,sus campanas sonaran
el cañón escupe fuego,saludando al personal.

G#5 A#5
Noche de Rock, un pabellón
B5 C#5
chorros de luz, vatios de "Blues"
G#5 A#5
chicos de rock, puños en flor
B5 C#5
alrededor, de su Dios!!!

B5
Dime tu, dime tu quien
D7 A5 E5
ha inspirado esta imagen
B5
Dime tu, dime tu quien
D7 A5 E5
es un pura sangre.


solo de guitarra en A mayor y se puede
convinar con la escala de E mayor

base B5 -D7-A5-E5 X4


G#5 A#5
Noche de Rock, un pabellón
B5 C#5
chorros de luz, vatios de "Blues"
G#5 A#5
chicos de rock, puños en flor
B5 C#5
alrededor, de su Dios!!!

COROX2
B5
Dime tu, dime tu quien
D7 A5 E5
ha inspirado esta imagen
B5
Dime tu, dime tu quien
D7 A5 E5
es un pura sangre.

B5-B5-B5-B5!!!

avisen de los errores asi podemos seguir roqueando!!!!

Recuerda que #AcordesWeb.com se mantiene en línea gracias al aporte de nuestros anunciantes.

Toca una Canción al Azar de Barón Rojo



ACORDES

PIANO UKELELE
F#
A5
A#5
D7
E5
G#5
B5
C#5
E
F#5



COMENTARIOS

Aún no hay comentarios,

¡escribe el primero!

Escribe un comentario o pregunta sobre esta canción




Más canciones de Barón Rojo

  • Tierra de nadie
  • Las flores del mal
  • Resistiré
  • Cuerdas de acero
  • Concierto para ellos
  • Todos los rockeros van al infierno
  • Invulnerable
  • Campo de concentración
  • Satánico Plan
  • Hijos de Caín
  • Los desertores del rock
  • Son como hormigas
  • Incomunicación
  • Siempre estás allí
  • Mil años luz
  • El Barón vuela sobre Inglaterra
  • Botas sucias
  • Casi Me Mato
  • Fugitivo
  • Hermano del rock and roll
  • Siguiente

    F#
    A5
    A#5
    D7
    E5
    G#5
    B5
    C#5
    E
    F#5

    Nuestro servidor se demoró 0.32 segundos en generar esta página. Que velocidad!