Fugitivo
Barón Rojo
Acordes

Subida por Fher304
Álbum: Arma secreta (1997)



Más Versiones de esta Canción | Ver. 2 | Ver. 3 |

Cambiar Cifrado
Americano Latino

Cambiar Tonalidad
-1 +1

Partir Pantalla Imprimir FAQ

+A
-A

LETRA Y ACORDES

RIFF1
G----------------------------------------------------
D----------------------------------------------------
A---------------------------------------4b2-4--------
E-0-2-2-2-0-2-2-2--5b2--0-2-2-2-0-2-2-2----5-5-4-5-2-

violin (arranca de vol 0, pisas la nota, subis a 100)
e---------v5---------------
B-v7-v5-v7--v7-v5--v10-v9--
G--------------------------
D--------------------------


RIFF2
G-------------------------
D-2-------2------4-2------
A-0--4-4--0--4-4----4-2h0-
E-------------------------

RIFF3
G-------------------------
D-------------------------
A-0h2-2-2-2---2-5-2-0h2---
E-------------------------

ARREGLOS DE GUITARRA
AR1
e---15-19---15-19--15-19----
B-17------17-----17-----17V-
G---------------------------
D---------------------------
AR2
e---14-17--14-17--14-17V----
B-15-----15-----15----------
G---------------------------
D---------------------------
AR3
e---------------------------
B---13-15--13-15--13-15-----
G-14-----14-----14-----14---
D---------------------------

____________________________________________-

INTRO SOLO DE VIOLIN + RIFF1 X4
GRITO!
RIFF1X2

B5 B5-A5-G5
Mitad rufián, mitad ladrón
G5-F#5-E5
Tuvo en sus manos un gran pastel
G#5 A5 RIFF2
Y sin dudarlo se puso a chupar de él.

B5 B5-A5-G5
Sauna y orgía, toalla y ron
G5-F#5-E5
Mitad hortera, mitad bufón
G#5 A5 RIFF2
Siempre la mano metida en el cajón

RIFF1-AR1-RIFF1-AR2-RIFF1-AR1-RIFF1-AR3

BASE
Un picoleto jamás soñó
Ni aún siendo el jefe, poder triunfar
Como un ministro nadando en el vil metal

Un periodista se fijó en él
Y por desgracia para su honor
G#5 A5 ----
Rápidamente su estrella declinó

CORTE
-B5-B5-B5-B5-B5-B5-B5-C#5-

D5 F5 G5 - D5
Y se fue, se fue
D5 F5 G5 - D5 RIFF3
Para no, para no volver

---------SILENCIO

RIFF1-AR1-RIFF1-AR2-RIFF1-AR1-RIFF1-AR3

B5 B5-A5-G5
Los gerifaltes y gente afín
E5
Que le enseñaron a delinquir
B5 B5-A5-G5 E5-G5
Le dijeron: de aquí te tienes que ir

A5 A5 RIFF3
¡¡¡ fugitivo, fugitivo !!!

---------SILENCIO

D5 F5 G5
Y se fue, se fue
D5 F5 G5
Para no, para no volver

SOLO: E5 -G5-A5-E5 X6
RIFF1X4

CON BASE DE CORO
D5 F5 G5
El fugitivo no pudo más
D5 D5
Busca y captura que gran "tinglao"
D5 F5 G5 D5
Y con gran pompa lo trincaron el Laos

CORO
Y se fue, se fue
Tuvo que, tuvo que volver.

(FADE OUT)
VUELVE EL CORO

D5 F5 G5
Y se fue, se fue

Tuvo que, tuvo que volver.


ARREGLO AGREGUEN PARA SEGUIR ROQUEANDO

Recuerda que #AcordesWeb.com se mantiene en línea gracias al aporte de nuestros anunciantes.

Toca una Canción al Azar de Barón Rojo



ACORDES

PIANO UKELELE
B5
A5
G5
F#5
E5
G#5
C#5
D5
F5



COMENTARIOS

Aún no hay comentarios,

¡escribe el primero!

Escribe un comentario o pregunta sobre esta canción




Más canciones de Barón Rojo

  • Dame la oportunidad
  • Hiroshima
  • Tren Fantasma
  • Opening 1
  • Hermano del rock and roll
  • Todos los rockeros van al infierno
  • Siempre estás allí
  • El Barón vuela sobre Inglaterra
  • Casi Me Mato
  • Tierra de nadie
  • Barón Rojo
  • Invulnerable
  • Rockero Indomable
  • Incomunicación
  • El Presidente
  • Mil años luz
  • Concierto para ellos
  • Las flores del mal
  • Los desertores del rock
  • Campo de concentración
  • Siguiente

    B5
    A5
    G5
    F#5
    E5
    G#5
    C#5
    D5
    F5

    Nuestro servidor se demoró 0.33 segundos en generar esta página. Que velocidad!