Comentário a Respeito de John (Acordes)

Belchior

Full Álbum: Medo de avião (0)
Subida por ROBIN

Compartir


Imprimir FAQ
+A
-A

Texto

Desplazamiento

Transportador

Color de Fondo

Archivos

-A
+A
Intro:

E|-------------------------------------
B|--------0-------------1-------0----
G|------0---0----------------0----0-
D|----0-------0---0h2---------------
A|-------------------------------------
E|-3-----------------------3----------
x6

E|-------------------------------
B|--------0--------------1------
G|------0---0---------0---0---
D|----0-------0-----2-------2-
A|-----------------3------------
E|-3----------------------------

E|-----------------------------------------
B|-------2-3p2-------2-------2---------
G|-----2--------2---2--2---2---2----2-
D|---2------------2------2--------2-----
A|-0--------------------------------------
E|-----------------------------------------

E|-------10-------7------7-----7-
B|-----7----7---7--7---7--7--7--
G|---7--------7------7------7----
D|-0-------------------------------
A|---------------------------------
E|----------------------------------

E|-------------------------------------
B|--------0-------------1-------0----
G|------0---0----------------0----0-
D|----0-------0---0h2---------------
A|-------------------------------------
E|-3-----------------------3----------
x2

E|-------------------------------
B|--------0--------------1-----
G|------0---0---------0---0---
D|----0-------0-----2-------2-
A|-----------------3------------
E|-3----------------------------

E|-----------------------------------------
B|-------2-3p2-------2-------2---------
G|-----2--------2---2--2---2---2----2-
D|---2------------2------2--------2-----
A|-0--------------------------------------
E|-----------------------------------------

E|-------3p2-------------2---------2------
B|-----3-----3---------3---3----3----3---
G|---2---------2-----2--------2---------2-
D|-0-----------------------------------------
A|--------------------------------------------
E|--------------------------------------------

G                C            G                          C
    Saia do meu, caminho, eu prefiro andar,
     G                                       C
sozinho, deixem que eu decida a minha
 A         D
vida...aham...
G                       C            G
    Não preciso que me digam, de que lado
 C          G                           C                  A
nasce o sol, porque bate lá meu coração...
   D
aham...

C                                                  G
    Sonho e escrevo em letras grandes (de novo) aham...
C                              D
    Pelos muros, do país...

  Bm      C
João, o tempo...
A                                            D
   Andou mexendo, com a gente, sim
G       Bm                   C
John........eu não esqueço (oh no! oh no!)
A                                                 C        G
   A felicidade, é uma arma queeeente,
     C        G       C        G
queeeente, queeeente
D    D/C  D/B  D
Yeah...

(Bridge)
G C G C G C A D (x2)

G                C            G                          C
    Saia do meu, caminho, eu prefiro andar,
     G                                       C
sozinho, deixem que eu decida a minha
 A         D
vida...aham...
G                       C            G
    Não preciso que me digam, de que lado
 C          G                           C                  A
nasce o sol, porque bate lá meu coração...
   D
aham....

C                              G
   Sob a luz, do teu cigarro na cama
     C                                           D
Aham...teu rosto ruge, teu batom, me diz

  Bm      C
João, o tempo...
A                                            D
   Andou mexendo, com a gente, sim
G       Bm                   C
John........eu não esqueço (oh no! oh no!)
A                                                 C        G
   A felicidade, é uma arma queeeente,
     C        G       C        G
queeeente, queeeente
D    D/C  D/B  D
Yeah...

(Fade out)
G C G C G C A D

Video Clip de Comentário a Respeito de John


ACORDES PARA GUITARRA

PIANO UKELELE
G
C
A
D
Bm
D/C
D/B


TOP 20: Las más tocadas de Belchior


Toca una Canción al Azar de Belchior

Acordes

Cerrar
G
C
A
D
Bm
D/C
D/B

15.24

x

112