Mote e Glosa (Acordes)

Belchior

disco Álbum: Belchior (1974)
Subida por cirimini


Imprimir FAQ
+A
-A

Texto

Desplazamiento

Transportador

Color de Fondo

Herramientas

TAMAÑO
TONALIDAD
+A
subir tono+ (F4)
-A
bajar tono- (F2)
    
[Intro] D

E|---8-8-8-8-8-8-8-8-8-8-7-7-7-7-7-7-7-7-7-7-5----------------------|
B|--------------------------------------------------------------2/3-|
G|------------------------------------------------------------------|
D|------------------------------------------------------------------|
A|------------------------------------------------------------------|
E|------------------------------------------------------------------|

D
É o novo é o novo é o novo é o novo é o novo é o novo
É o novo é o novo é o novo é o novo é o novo é o novo
É o novo é o novo é o novo é o novo é o novo é o novo
É o novo é o novo é o novo é o novo é o novo é o novo 

               G    A            D
Passarinho no ninho, tudo envelheceu
            G   A            D
Cobra no buraco, palavra morreu

                 Am       C             D
Você que é muito vivo me diga qual é o novo
    C             D        C             D
Me diga qual é o novo, me diga qual é o novo 

Novo, novo, novo, novo

                  Am      C           D
Me diga qual é o novo, me diga qual é novo
    C             D        C             D
Me diga qual é o novo, me diga qual é o novo 

Nananana, nananana, nananana

E|---------------------------------------------------------------|
B|---------------------------------------------------------------|
G|---7-5-4---2-4-5-7-5-4-2-----2-0-------------------------------|
D|-----------------------------------------4----2-4-2-0-----0----|
A|---------------------------------------------------------2-2---|
E|---------------------------------------------------------------|

                 G                  D
Me diga qual é o novo, me diga qual é
                 G                  D
Me diga qual é o novo, me diga qual é
                 G                  D
Me diga qual é o novo, me diga qual é
                 G                  D
Me diga qual é o novo, me diga qual é

(D)

HERRAMIENTAS ACORDESWEB:


LETRA DE LA CANCIÓN:

Ver la letra sola (sin acordes)

OTRAS VERSIONES DE LA MISMA CANCIÓN:

Ver. 2 Ver. 3 Ver. 4 Ver. 5 Ver. 6

DESCARGAR PDF / IMPRIMIR CANCIÓN



ACORDES PARA

d
D
g
G
a
A
am
Am
c
C


TOP 20: Las más tocadas de Belchior