c ▷ PASSEIO: (Belchior) Acordes para Guitarra, Piano & Ukelele

Compartir


Imprimir FAQ
+A
-A

Texto

Desplazamiento

Transportador

Color de Fondo

Archivos

-A
+A
Intro:
F Am F Am F Am G7 C
F Am F Am F Am G7

E|-------0-------0-------0-------0-------0-------0-------1------0-------|
B|-----1-------1-------1-------1-------1-------1-------0------1---------|
G|---2-------2-------2-------2-------2-------2-------0------0-----------|
D|-3-------2-------3-------2-------3-------2-------0--------------------|
A|--------------------------------------------------------3-------------|
E|----------------------------------------------------------------------|

E|-------0-------0-------0-------0-------0-------0------1-------1-------1------1--|
B|-----1-------1-------1-------1-------1-------1------0-------0-------0------0----|
G|---2-------2-------2-------2-------2-------2------0-------0-------0------0------|
D|-3-------2-------3-------2-------3-------2------0-------------------------------|
A|--------------------------------------------------------------------------------|
E|-------------------------------------------------------3-------3------3---------|

         C G/B Am
Vamos andar 
      G    E/G#       Am                 E7/9b  A7        D7
Pelas ruas de   São Paulo, por entre os car----ros de São Paulo
      G7           C           Dm7   G7
Meu amor, vamos andar e passear

      C G/B Am      G     E/G#    Am
Vamos sair     pela rua   da   Consolação
          A7              E7/9b  A7   D7                    Dm         G          C  G/B
Dormir no par-----que, em plena quarta-feira, e sonhar com o domingo em nosso coração.

Am                            D7    F   G
Meu amor, meu amor, meu amor

Refrão:
C           G/B           Am
  A eletricidade desta cidade 
                    F
Me dá vontade de gritar 
           G
Que apaixonado eu sou
C           G/B            Am
   Nesse cimento, meu pensamento e meu sentimento  
                      F   G
Só têm o momento de fugir    
             C
No disco voador

G/B   Am                           D7  F  G
      Meu amor, meu amor, meu amor!

(repete refrão)

Instrumental:
Am Dm7 G
C Am D7 F
C G/B
Am
D7 F G

         C  G/B  Am
Vamos andar...

Video Clip de Passeio


ACORDES PARA GUITARRA

PIANO UKELELE
F
Am
G7
C
G/B
G
E/G#
E7b9
A7
D7
Dm7
Dm


TOP 20: Las más tocadas de Belchior


Toca una Canción al Azar de Belchior

Acordes

Cerrar
F
Am
G7
C
G/B
G
E/G#
E7b9
A7
D7
Dm7
Dm

17.33

x

202