c ▷ AMOR DE ÍNDIO: (Beto Guedes) Acordes para Guitarra, Piano & Ukelele

Compartir


Imprimir FAQ
+A
-A

Texto

Desplazamiento

Transportador

Color de Fondo

Archivos

-A
+A
Intro: G5  C7M(6)/G  G9  C7M(6)/G
   G5          C7M(6)/G
E|-----------------------------------------
B|-------3-------------0-------------------
G|-0-------0---------2---2-----------------
D|-0-0-------0-----2-------2---------------
A|---------------3-----------3-------------
E|-3---3-------3---------------------------

   G9          C7M(6)/G
E|-------------0---------------------------
B|-------0-----0---------------------------
G|-2-------2---2---------------------------
D|-0-0-------0-2---------------------------
A|-------------3---------------------------
E|-3---3-------3---------------------------

Estrofes:
   G9                    C5(9)
E|-----------------------------------------
B|-------0---------0-----------3-----------
G|-2-------2---2-----2-------0---0---------
D|---0-------0---0-----0---0-------0-------
A|-----------------------3-----------------
E|-3---3-------3---3-----------------------

E|-0---------------------------------------
B|---3-1-0---------------------------------
G|---------2-0-----------------------------
D|-----------------------------------------
A|-3---------------------------------------
E|-----------------------------------------

   G9                      C
E|-----------------------------------------
B|-------0-----------0-----------1---------
G|-2-------2---2-------2-------0---0-------
D|---0-------0---0-------0---2-------2-----
A|-------------------------3---------------
E|-3---3-------3---3-----------------------

   C7M
E|-----------------------------------------
B|-0---------------------------------------
G|-0---0-----------------------------------
D|-2-2---2---------------------------------
A|-3---------------------------------------
E|-----------------------------------------

   Bm7                                 C9(4+)
E|-------------------------------------2---
B|-------3-----------3-----------3-----3---
G|-----2---2-------2---2-------0---0---0---
D|---0-------0---0-------0---2-------2-----
A|-2-----------2-----------3-----------3---
E|-----------------------------------------


 G9                 C5(9)               G9
Tudo que move é sagrado e remove as montanhas
            C          C7M
Com todo cuidado, meu amor

    Bm7                       C9(4+)
Enquanto a chama arder, todo dia te ver passar
 G9                C5(9)                  G9
Tudo viver ao teu lado, com o arco da promessa
           C5(9)      C7M
No azul pintado prá durar
Segunda Parte:
   Bm7              C9
E|-----------------------------------------
B|-------3-3-------3-3-------3-3-------3-3-
G|-------2-2-------2-2-------0-0-------0-0-
D|---0---0-0---0---0-0---2---2-2---2---2-2-
A|-2---2-----2---2-----3---3-----3---3-----
E|-----------------------------------------

   Bm7                 C9
E|-----------------------------------------
B|-------3-3-------3-3-------3-3-----------
G|-------2-2-------2-2-------0-0-----0-----
D|---0---0-0---0---0-0---2---2-2---2-------
A|-2---2-----2---2-----3---3-----3-----2---
E|-----------------------------------------

         Em7(9)              D5
E|---------------------------------0-------
B|-------------3-3-------3-------3-------3-
G|-------------0-0-----0---0---2-------2---
D|-----------4-------4-------0-------0-----
A|-2p0-----2-------------------------------
E|-----3-0---------0-----------------------

         C9                    D4(7)     D7(11)
E|-0---------------------------------3---2-
B|---3---------3-----------3-------1---1-1-
G|-----2-----0---0-------0---0---0-------0-
D|---------2-------2---2-------0---------0-
A|-------3-----------3---------------------
E|-----------------------------------------


Bm7                         C9
Abelha fazendo mel, vale o tempo que não voou
     Bm7                   C9
A estrela caiu do céu, o pedido que se pensou
     Em7(9)
O destino que se cumpriu,
    D5(9)                  C9   D4(7) D7(11)
de sentir seu calor e ser todo
     Em7(9)
Todo dia é de viver,
      D5(9)               C9  D4(7) D7(11)
Para ser o que for e ser tudo

 G9                  C5(9)               G9
Sim, todo amor é sagrado e o fruto do trabalho
             C           C7M
É mais que sagrado, meu amor

   Bm7                         C9(4+)
A massa que faz o pão, vale a luz do seu suor
 G9                     C5(9)                  G9
Lembra que o sono é sagrado e alimenta de horizontes
            C        C7M
O tempo acordado de viver

      Bm7                    C9
No inverno te proteger, no verão sair prá pescar
      Bm7                   C9
No outono te conhecer, primavera poder gostar
     Em7(9)
No estio me derreter,
         D5(9)               C9   D4(7) D7(11)
prá na chuva dançar e andar junto
     Em7(9)
O destino que se cumpriu,
    D5(9)                  C9   D4(7) D7(11)
De sentir seu calor e ser todo

G9                   C5(9)
Sim, todo amor é sagrado
Final:
   G9                                 C9(4+)
E|------------------------------------2----
B|-------0----------0-----------3-----3----
G|-2-------2----2-----2-------0---0---0----
D|---0-------0----0-----0---0-------0-0----
A|------------------------3-----------3----
E|-3---3--------3---3----------------------

Video Clip de Amor de Índio


ACORDES PARA GUITARRA

PIANO UKELELE
G5
Cmaj13
G9
Cadd9
C
Cmaj7
Bm7
C9
Em9
D5
D7sus4
D11
Dadd9


TOP 20: Las más tocadas de Beto Guedes


Toca una Canción al Azar de Beto Guedes

Acordes

Cerrar
G5
Cmaj13
G9
Cadd9
C
Cmaj7
Bm7
C9
Em9
D5
D7sus4
D11
Dadd9

17.32

x

134