Darkness (Acordes)

Black Uhuru

Subida por matystratt85

Compartir


Imprimir FAQ
+A
-A

Texto

Desplazamiento

Transportador

Color de Fondo

Archivos

-A
+A
G|----------------------------------------------------|| 
D|----------------------------------------------------|| 
A|--0-------------7---------0--9--------0--7----------|| 
E|----7---9---10-----10--9--------10--9-------10--9--7|| 

G|------------------------------------------------------|| 
D|------------------------------------------------------|| 
A|--0-------------777---------0--9--------0--7----------|| 
e|----7---9---10-----10--9--------10--9-------10--9--7--||

HERRAMIENTAS ACORDESWEB:


LETRA DE LA CANCIÓN:

Ver la letra sola (sin acordes)

OTRAS VERSIONES DE LA MISMA CANCIÓN:

Ver. 2

DESCARGAR PDF / IMPRIMIR CANCIÓN



ACORDES PARA GUITARRA

PIANO UKELELE


TOP 20: Las más tocadas de Black Uhuru


Toca una Canción al Azar de Black Uhuru

Acordes

Cerrar

00.39

x

59