Triptych Part 3

Blockhead

Acordes

Music by Cavelight (2004)
Subida por jazlopez84



Cambiar Cifrado
Americano Latino

Cambiar Tonalidad
-1 +1

Partir Pantalla Imprimir FAQ

+A
-A

Part A
G---------------------------------------|
D---------------------------------------|
A---------------------------------------|
E-2-0-2-----/14--12--9h12-9--9--12------|

G---------------------------------------|
D---------------------------------------|
A-9-11-9----9-11---14-12-11-7--9--11----|
E--------12--------------------------9--|

G-----------------------------------------|
D-----------------------------------------|
A-----------------------------------------|
E--9--7--5--7---9-7-5---------------------|

Part B
G---------------------------------------|
D---------------------------------------|
A---------------------------------------|
E-2-0-2-----/14--12--9h12-9--9--12------|

G---------------------------------------|
D-------------------------11--14--------|
A-9-11-9----9-11---14--12---------------|
E--------12-----------------------------|

G---------------------------------------|
D-16-14-16-14--11--9-7-9-11-------------|
A---------------------------------------|
E---------------------------9--7--5-----|

"My Hands is Nice from being a DJ, so its like 2 planet floating around the same sun, so
Bong!" RZA, Coffee and Cigarettes.

http://*

NUEVO FORO DE MÚSICA

¿Tienes alguna duda, consulta, pregunta, consejo o algo para compartir sobre esta canción?

¡Puedes abrir un hilo en el FORO para que la comunidad te ayude! Hacer una pregunta

ACORDES PARA GUITARRA

PIANO UKELELE


Las más tocadas de Blockhead