Compartir


Cambiar Cifrado
Americano Latino

Cambiar Tonalidad
-1 +1
Imprimir FAQ
+A
-A

Texto

Desplazamiento

Transportador

Color de Fondo

Archivos

TONALIDAD, TAMAÑO, CIFRADO, SCROL.

Nos renovamos: Ahora puedes cambiar TODO haciendo clic en ICONO de la Guitarra () que aparece en la parte inferior de esta página.


LETRA CON ACORDES

Bob Schneider - The Bringdown

from his album Lovely Creatures (2009)
as interpreted by AMG (amga.co)

After like a decade of utilizing this site, this is my first tab I've made with the
intent of posting.  I was very surprised no one else had worked this one out yet, but I'm
glad to contribute something!  Please let me know if you interpret the song differently! 
 This is the long, drawn-out version; I'm sure the details can be improved and I'm not
working out the solo or outro right now.  The whole song is muted, you'll have to listen 
to it to figure out the subtleties.


Standard Tuning

Am  -02210
C   -32010
F   133211
G   320033



Intro

   Am7 -  Am          Am                 Am7 -  Am          Am
e--0------0----0---|--0----0----------|--0------0----0---|--0----0----------|
B--1------1----1---|--1----1----------|--1------1----1---|--1----1----------|
G--0h2----2----0h2-|--2----0h2--------|--0h2----2----0h2-|--2----0h2--------|
D--2------2----2---|--2----2----------|--2------2----2---|--2----2----------|
A--0------0----0---|--0----0----------|--0------0----0---|--0----0----------|
E------------------|------------------|------------------|------------------|


Intro cont'd - play through Chorus



Verse (repeat 2x) & Chorus

   Am7 -  Am          Am                 C                  C
e--0------0----0---|--0----0----------|--0------0----0---|--0----0----------|
B--1------1----1---|--1----1----------|--1------1----1---|--1----1----------|
G--0h2----2----0h2-|--2----0h2--------|--0------0----0---|--0----0----------|
D--2------2----2---|--2----2----------|--2------2----0h2-|--2----0h2--------|
A--0------0----0---|--0----0----------|--3------3----3---|--3----3----------|
E------------------|------------------|------------------|------------------|


   Am7 -  Am          Am                 C                  C
e--0------0----0---|--0----0----------|--0------0----0---|--0----0----------|
B--1------1----1---|--1----1----------|--1------1----1---|--1----1----------|
G--0h2----2----0h2-|--2----0h2--------|--0------0----0---|--0----0----------|
D--2------2----2---|--2----2----------|--2------2----0h2-|--2----0h2--------|
A--0------0----0---|--0----0----------|--3------3----3---|--3----3----------|
E------------------|------------------|------------------|------------------|



Pre-Chorus

   F                  F                  Am7 -  Am          Am
e--1------1----1---|--1----1----------|--0------0----0---|--0----0----------|
B--1------1----1---|--1----1----------|--1------1----1---|--1----1----------|
G--2------2----2---|--2----2----------|--0h2----2----0h2-|--2----0h2--------|
D--2h3----3----2h3-|--3----2h3--------|--2------2----2---|--2----2----------|
A--2h3----3----2h3-|--3----2h3--------|--0------0----0---|--0----0----------|
E--1------1----1---|--1----1----------|------------------|------------------|


   F                  F                  G                  G
e--1------1----1---|--1----1----------|--3------3----3---|--3----3----------|
B--1------1----1---|--1----1----------|--3------3----3---|--3----3----------|
G--2------2----2---|--2----2----------|--0------0----0---|--0----0----------|
D--2h3----3----2h3-|--3----2h3--------|--0------0----0---|--0----0----------|
A--2h3----3----2h3-|--3----2h3--------|--2------2----0h2-|--2----0h2--------|
E--1------1----1---|--1----1----------|--3------3----3---|--3----3----------|



Middle - 8

   F                  F                  Am7 -  Am          Am
e--1------1----1---|--1----1----------|--0------0----0---|--0----0----------|
B--1------1----1---|--1----1----------|--1------1----1---|--1----1----------|
G--2------2----2---|--2----2----------|--0h2----2----0h2-|--2----0h2--------|
D--2h3----3----2h3-|--3----2h3--------|--2------2----2---|--2----2----------|
A--2h3----3----2h3-|--3----2h3--------|--0------0----0---|--0----0----------|
E--1------1----1---|--1----1----------|------------------|------------------|


   F                  F                  Am7 -  Am          Am
e--1------1----1---|--1----1----------|--0------0----0---|--0----0----------|
B--1------1----1---|--1----1----------|--1------1----1---|--1----1----------|
G--2------2----2---|--2----2----------|--0h2----2----0h2-|--2----0h2--------|
D--2h3----3----2h3-|--3----2h3--------|--2------2----2---|--2----2----------|
A--2h3----3----2h3-|--3----2h3--------|--0------0----0---|--0----0----------|
E--1------1----1---|--1----1----------|------------------|------------------|


   F                  F                  Am7 -  Am          Am
e--1------1----1---|--1----1----------|--0------0----0---|--0----0----------|
B--1------1----1---|--1----1----------|--1------1----1---|--1----1----------|
G--2------2----2---|--2----2----------|--0h2----2----0h2-|--2----0h2--------|
D--2h3----3----2h3-|--3----2h3--------|--2------2----2---|--2----2----------|
A--2h3----3----2h3-|--3----2h3--------|--0------0----0---|--0----0----------|
E--1------1----1---|--1----1----------|------------------|------------------|


   F                  F                  G                  G
e--1------1----1---|--1----1----------|--3------3----3---|--3----3----------|
B--1------1----1---|--1----1----------|--3------3----3---|--3----3----------|
G--2------2----2---|--2----2----------|--0------0----0---|--0----0----------|
D--2h3----3----2h3-|--3----2h3--------|--0------0----0---|--0----0----------|
A--2h3----3----2h3-|--3----2h3--------|--2------2----0h2-|--2----0h2--------|
E--1------1----1---|--1----1----------|--3------3----3---|--3----3----------|



Bridge

   Am7 -  Am          Am                 C                  C
e--0------0----0---|--0----0----------|--0------0----0---|--0----0----------|
B--1------1----1---|--1----1----------|--1------1----1---|--1----1----------|
G--0h2----2----0h2-|--2----0h2--------|--0------0----0---|--0----0----------|
D--2------2----2---|--2----2----------|--2------2----0h2-|--2----0h2--------|
A--0------0----0---|--0----0----------|--3------3----3---|--3----3----------|
E------------------|------------------|------------------|------------------|


   Am7 -  Am          Am                 C                  C
e--0------0----0---|--0----0----------|--0------0----0---|--0----0----------|
B--1------1----1---|--1----1----------|--1------1----1---|--1----1----------|
G--0h2----2----0h2-|--2----0h2--------|--0------0----0---|--0----0----------|
D--2------2----2---|--2----2----------|--2------2----0h2-|--2----0h2--------|
A--0------0----0---|--0----0----------|--3------3----3---|--3----3----------|
E------------------|------------------|------------------|------------------|


   Am7 -  Am          Am                 C                  C
e--0------0----0---|--0----0----------|--0------0----0---|--0----0----------|
B--1------1----1---|--1----1----------|--1------1----1---|--1----1----------|
G--0h2----2----0h2-|--2----0h2--------|--0------0----0---|--0----0----------|
D--2------2----2---|--2----2----------|--2------2----0h2-|--2----0h2--------|
A--0------0----0---|--0----0----------|--3------3----3---|--3----3----------|
E------------------|------------------|------------------|------------------|


   Am7 -  Am          Am                 C                  C
e--0------0----0---|--0----0----------|--0------0----0---|--0----0----------|
B--1------1----1---|--1----1----------|--1------1----1---|--1----1----------|
G--0h2----2----0h2-|--2----0h2--------|--0------0----0---|--0----0----------|
D--2------2----2---|--2----2----------|--2------2----0h2-|--2----0h2--------|
A--0------0----0---|--0----0----------|--3------3----3---|--3----3----------|
E------------------|------------------|------------------|------------------|


   F                  F                  Am7 -  Am          Am
e--1------1----1---|--1----1----------|--0------0----0---|--0----0----------|
B--1------1----1---|--1----1----------|--1------1----1---|--1----1----------|
G--2------2----2---|--2----2----------|--0h2----2----0h2-|--2----0h2--------|
D--2h3----3----2h3-|--3----2h3--------|--2------2----2---|--2----2----------|
A--2h3----3----2h3-|--3----2h3--------|--0------0----0---|--0----0----------|
E--1------1----1---|--1----1----------|------------------|------------------|


   F                  F                  G                  G
e--1------1----1---|--1----1----------|--3------3----3---|--3----3----------|
B--1------1----1---|--1----1----------|--3------3----3---|--3----3----------|
G--2------2----2---|--2----2----------|--0------0----0---|--0----0----------|
D--2h3----3----2h3-|--3----2h3--------|--0------0----0---|--0----0----------|
A--2h3----3----2h3-|--3----2h3--------|--2------2----0h2-|--2----0h2--------|
E--1------1----1---|--1----1----------|--3------3----3---|--3----3----------|


   Am7 -  Am          Am                 C                  C
e--0------0----0---|--0----0----------|--0------0----0---|--0----0----------|
B--1------1----1---|--1----1----------|--1------1----1---|--1----1----------|
G--0h2----2----0h2-|--2----0h2--------|--0------0----0---|--0----0----------|
D--2------2----2---|--2----2----------|--2------2----0h2-|--2----0h2--------|
A--0------0----0---|--0----0----------|--3------3----3---|--3----3----------|
E------------------|------------------|------------------|------------------|


   Am7 -  Am          Am                 C                  C
e--0------0----0---|--0----0----------|--0------0----0---|--0----0----------|
B--1------1----1---|--1----1----------|--1------1----1---|--1----1----------|
G--0h2----2----0h2-|--2----0h2--------|--0------0----0---|--0----0----------|
D--2------2----2---|--2----2----------|--2------2----0h2-|--2----0h2--------|
A--0------0----0---|--0----0----------|--3------3----3---|--3----3----------|
E------------------|------------------|------------------|------------------|




Lyrics and Song Progression

(Intro)

(Verse 1)
        Turn the corner
        right into the hail
        Think we oughta
        set sail
        Shoot for the shoreline
        Fall into the hole
        Watch your back
        and let go

(Pre-Chorus 1)
        It's like a whisper
        never makes a sound
        Come hold me

(Chorus)
        Bring the bringdown
        Bring the bringdown, Baby

(Verse 2)
        Running up
        beside of a wall
        It's just an invitation
        to fall
        Risky business
        A game for fools
        Bend your heart
        Break the rules

(Pre-Chorus 2)
        Never know when
        it'll come around
        Come hold me

(Chorus)

(Middle-8)
        Your smile
        is a beautiful place
        Take me with you
        I wanna go there
        Your love
        What a beautiful waste
        I take it with me
        wherever I go

(bridge)

(Verse 3)
        Take the air
        that I breathe
        Take away the world
     at my feet
        Take these wooden
        hands of desire
        Throw it all
        into your fire

(Pre-Chorus 3)
        The Devil's wings
        Misery's gone
        I come home

(Chorus)

(Chorus)

repeat chorus and fade out out.

Video Clip de The Bringdown


ACORDES PARA GUITARRA

PIANO UKELELE
Am
C
F
G
Am7


TOP 20: Las más tocadas de Bob Schneider


Acordes

Cerrar
Am
C
F
G
Am7

12.13


383