Back To You
Bryan Adams
Acordes

Subida por ariel


Más Versiones
Ver. 2 Ver. 3 Ver. 4 Ver. 5 Ver. 6
+A
-A
(intro - riff 1 - 2x)    C  Am   F   G

C Am F G
E|----38---7-0-5---5------------88--7--5--3----------------------------------------
B|---------------------56-6/5------------------------------------------------------
G|----------------------------------------------------------------------------------
D|----------------------------------------------------------------------------------
A|----------------------------------------------------------------------------------
E|----------------------------------------------------------------------------------

(solo)
E|-----38--7-0-5/3--------------------------8-10-12--8h10--------88-77-55-33-------
B|------------------56-6666-5/35/3---5-6-8---------------10p8---------------66-5--
G|--------------------------------------------------------------------------------5-
D|---------------------------------------------------------------------------------5
A|----------------------------------------------------------------------------------
E|----------------------------------------------------------------------------------

C Am
I've been down - I've been beat
F G
I've been so tired - that I could not speak
C Am
I've bin so lost that I could not see
F G
I wanted things that were out of reach
C Am
Then I found you and you helped me through
F G
And ya showed me what to do
F E
That's why I'm comin' back to you...

(intro)

(refrão)
Am F G4 G
Like a star that guides a ship across the ocean
Am F G
That's how your love can take me home back to you
Em Am
And if I wish upon that star,
Em Am
That someday I'll be where you are
Dm G
I know that day is comin' soon, yeah I'm coming back to you

(instrumental 2x) C Am F G
(solo)

C Am
You've been alone, ya didn't show it
F G
You've been in pain when I did not know it
C Am
You let me do what I needed to,
F G
you were there when I needed you
C Am
Mighta let you down, mighta messed you round
F G
But ya never changed your point of view
F E
That's why I'm coming back to you

(refrão)

(solo 2x) C Am F G

C Am
Mighta let you down, mighta messed you round
F G
But ya never changed your point of view
F E
That's why I'm coming back to you

(refrão)
Am F G
I'm comin' back to you....
Am F G
I'm comin' back to you....
Am F G
I'm comin' back to you....
Am F G
I'm comin' back to you....
Am F G
That day is comin' soon
Am F G
I'm comin' back to you....
Am F G

ACORDES PARA GUITARRA

PIANO UKELELE
C
Am
F
G
E
G4
Em
Dm


COMENTARIOS

Aún no hay comentarios,

¡escribe el primero!

Escribe una pregunta, duda o comentario sobre esta canción, te responderemos a la brevedad.

Las más tocadas de Bryan Adams

Toca una Canción al Azar de Bryan Adams
C
Am
F
G
E
G4
Em
Dm