Straight From The Heart
Bryan Adams
Acordes

Subida por arjuenisperimetro
Álbum: Cuts Like a Knife ( 1983)


Más Versiones
Ver. 2 Ver. 3 Ver. 4 Ver. 5 Ver. 6
+A
-A
Intro:

C
E|-3---3---3---3---3---3---3---3-----|
B|---1---1---1---1---1---1---1---1---|
G|-----------------------------------|
D|-----------------------------------|
A|-3---------------------------------|
E|-----------------------------------|

C
E|---------0----------------0--------|
B|-----1-----1---1------1-----1---1--|
G|---0---0-----0------0---0-----0----|
D|-----------------------------------|
A|-3----------------3----------------|
E|-----------------------------------|

C
I could start dreaming, but in never ends.
C
As long as you're gone we may as well pretend.
Bb F Bb C G C
I been dreamin' straight from the heart.
C
You say it's easy, but who's to say that we'd be able to keep it this way.
Bb F Bb C G C
But it's easier, comin' straight from the heart.
F G C
Oh give it to me straight from the heart
F G C
Tell me we could make another start
Am G F
You know I'll never go as long as I know it's comin
C G C
Straight from the heart.
C
I see you on the street some other time,
C
When all the words will just fall out of line
Bb F Bb C G C
While we're dreamin' straight from the heart.
F G C
Oh give it to me straight from the heart
F G C
Tell me we could make another start
Am G F
You know I'll never go as long as I know it's comin
C G C
Straight from the heart.

(Parada Instrumental)

F G C
Straight from the heart
F G C
Tell me we could make one more start
Am G F
You know I'll never go as long as I know, give it to me now
F G
Straight from the heart.

Repete e depois termina assim:

F C G C
It's comin' straight from the heart

ACORDES PARA GUITARRA

PIANO UKELELE
C
Bb
F
G
Am


COMENTARIOS

Aún no hay comentarios,

¡escribe el primero!

Escribe una pregunta, duda o comentario sobre esta canción, te responderemos a la brevedad.

Las más tocadas de Bryan Adams

Toca una Canción al Azar de Bryan Adams
C
Bb
F
G
Am