Everything I Do I Do It For You
Bryan Adams
Acordes

Subida por Jhonathan3345
Álbum: Waking Up the Neighbours ( 1991)


Más Versiones
Ver. 2 Ver. 3 Ver. 4 Ver. 5 Ver. 6

Cambiar Cifrado
Americano Latino

Cambiar Tonalidad
-1 +1

Partir Pantalla Imprimir FAQ

+A
-A


Ver solo la LETRA
Capo 1


[Intro]
C G F G

[Verse]
C                           G
Look into my eyes, you will see 
F                G
What you mean to me 
            C                  G
Search your heart, search your soul 
    F                             C         G
And when you find me there you'll search no more 

[Chorus]
      Dm                     C         Dm
Don't tell me it's not worth fighting for 
                                 C     Dm
You can't tell me it's not worth dyin' for 
              C
You know it's true 
             G               C
Everything I do, I do it for you 

[Verse]
C                              G
Look into your heart, you will find 
        F                G                
There's nothin' there to hide 
             C           G
Take me as I am, take my life 
        F                    C    G
I would give it all, I would sacrifice 

[Chorus]
      Dm                     C          Dm
Don't tell me it's not worth fighting for 
                                 C     Dm
I can't help it there's nothing I want more 
              C
You know it's true 
             G               C
Everything I do, I do it for you 

[Bridge]
       Bb            Eb
There's no love, like your love 
       Bb                F
And no other, could give more love 
        C               G
There's nowhere, unless you're there 
        D             G
All the time, all the way 

[Solo]
    F                                  C
e|----------------------------------|-------------------------|
B|----------------------------------|--------------9-9--------|
G|--8h10vvvv----/10-8-6-------------|----6-6---/10------------|
D|----------------------8/11-/13vv--|--8---------------11-11--|
A|----------------------------------|-------------------------|
E|----------------------------------|-------------------------|

    F                                             C
e|---------------9-----------------------------|---------------|
B|--9/11-11vv------11-11vv-----11p9-11---------|---------------|
G|-------------------------------------8/10vv--|--8-8-8^--6vv--|
D|---------------------------------------------|---------------|
A|---------------------------------------------|---------------|
E|---------------------------------------------|---------------|

[Chorus]
               Dm                             G
Oh - you can't tell me it's not worth fighting for
        Dm                               G   F
I can't help it, there's nothin' I want more 
        C                  G
I would fight for you, I'd lie for you 
         F                    Fm
Walk the wire for you, ya I'd die for you 

[Outro]
             C
You know it's true 
             G  F            C
Everything I do, I do it for you...

***********************************

| v   Vibrato
| /   Slide up
| ^   Bend

***********************************

ACORDES PARA GUITARRA

PIANO UKELELE
C
G
F
Dm
Bb
Eb
D
Fm


COMENTARIOS

Aún no hay comentarios,

¡escribe el primero!

Escribe una pregunta, duda o comentario sobre esta canción, te responderemos a la brevedad.

Las más tocadas de Bryan Adams

Toca una Canción al Azar de Bryan Adams
C
G
F
Dm
Bb
Eb
D
Fm