Heaven
Bryan Adams
Acordes

Subida por Eloy
Álbum: Reckless ( 1984)


Más Versiones
Ver. 2 Ver. 3 Ver. 4 Ver. 5 Ver. 6
+A
-A
Intro 2x:  C  F5(7M/9)/C

C F5(7M/9)/C
E|-----------------------------------------
B|----1------------1----1------------------
G|----0------------0----0------------------
D|--2------2--3--3----3---3----------------
A|3-----3----------------------------------
E|-----------------------------------------

Primeira Parte:
C Am7 G4(6) G6
Oh!! Thinking about all our younger years
Dm7(9) Am7(9)
There was only you and me
Bb6(11+) G4(6) G6
We were young and wild and free
C Am7 G4(6) G6
Now nothing can take you away from me
Dm7(9) Am7(9)
We've been down that road before
Bb6(11+) Am7(5+)
But that's over now
G4(6) G6
You keep me coming back for more

Primeira Parte:
C Am7 G4(6) G6
E|-----------------------------------------
B|1-----1-----1-----1-----1-----1-----0----
G|0-----0-----0-----0-----0-----0-----0----
D|---2-----2-----2-----2-----2-----2--0----
A|3-----------0----------------------------
E|------------------------3-----------3----

Dm7(9) Am7(9) Bb6(11+)
E|------0----------------------------------
B|6--------6--------0-----3-----3----------
G|5--5--------5-------5---0-----0----------
D|------------5--5-----------3----3--------
A|5-----------0-----------1----------------
E|-----------------------------------------

G4(6) G6
E|-----------------------------------------
B|1------0---------------------------------
G|0------0---------------------------------
D|---2-----0-------------------------------
A|-----------------------------------------
E|3------3---------------------------------

C Am7 G4(6) G6
E|-----------------------------------------
B|1-----1-----1-----1-----1-----1-----0----
G|0-----0-----0-----0-----0-----0-----0----
D|---2-----2-----2-----2-----2-----2--0----
A|3-----------0----------------------------
E|------------------------3-----------3----

Dm7(9) Am7(9) Bb6(11+)
E|------0----------------------------------
B|6--------6--------0-----3-----3----------
G|5--5--------5-------5---0-----0----------
D|------------5--5-----------3-----3-------
A|5-----------0-----------1----------------
E|-----------------------------------------

Am7(5+) G4(6) G6
E|-----------------------------------------
B|1-----3-------1-----1-----0--------------
G|0-----0-------0-----0-----0--------------
D|---3-----3-------2-----2--0--------------
A|0----------------------------------------
E|--------------3-----------3--------------

Refrão:
F5(7M/9)/C C9/G Am7
Baby you're all that I want
C F5(7M/9)/C
When you're lying here in my arms
C9/G Am7
I'm finding it hard to believe
G4(6) G6
We're in heaven
F5(7M/9)/C C9/G Am7
And love is all that I need
C F5(7M/9)/C
And I found it there in your heart
F5(7M/9)/C C9/G Am7
Isn't too hard to see?
G4(6) G6
We're in heaven

Repete Intro 2x: C F5(7M/9)/C

Primeira Parte vom variação na letra:
C Am7 G4(6) G6
Oh!! Once in your life you find someone
Dm7(9) Am7(9)
Who will turn your world around
Bb6(11+) G4(6) G6
Bring you up when you're feeling down

C Am7
Yeah! Nothing could change
G4(6) G6
What you mean to me
Dm7(9) Am7(9)
Oh there's lots that I could say
Bb6(11+) Am7(5+)
But just hold me now
G4(6) G6
'Cause our love will light the way

Refrão com variação na letra:
F5(7M/9)/C C9/G Am7
And, Baby you're all that I want
C F5(7M/9)/C
When you're lying here in my arms
C9/G Am7
I'm finding it hard to believe
G4(6) G6
We're in heaven
F5(7M/9)/C C9/G Am7
And love is all that I need
C F5(7M/9)/C
And I found it there in your heart
F5(7M/9)/C C9/G Am7
Isn't too hard to see?
G4(6) G6
We're in heaven
G4(6) G6
Heaven

Segunda Parte:
Dm7(9) Em7 F5(7M/9)/C
I've been waiting for so long
C9/G Am7
For something to arrive
G/B C
For love to come along
Dm7(9) Em7 F5(7M/9)/C
Now our dreams are coming true
C
Through the good times and the bad
G4(6) G6
Yeah!!! I'll be standing there by you

F5(7M/9)/C C9/G Am7 C F5(7M/9)/C
C9/G Am7 G4(6) G6 (2x)

Refrão:
F5(7M/9)/C C9/G Am7
And, Baby you're all that I want
C F5(7M/9)/C
When you're lying here in my arms
C9/G Am7
I'm finding it hard to believe
G4(6) G6
We're in heaven
F5(7M/9)/C C9/G Am7
And love is all that I need
C F5(7M/9)/C
And I found it there in your heart
F5(7M/9)/C C9/G Am7
Isn't too hard to see?
G4(6)
We're in heaven
G6
Heaven...

Parte Final:
F5(7M/9)/C C9/G Am7 C F5(7M/9)/C
Oh
F5(7M/9)/C C9/G
You're all that I want!
Am7 G4(6) G6
You're all that I need!

F5(7M/9)/C C9/G Am7 C F5(7M/9)/C

C9/G Am7 G4(6) G6
C F5(7M/9)/C C
We're in heaven
F5(7M/9)/C C
We're in heaven
F5(7M/9)/C C
We're in heaven

Dedilhado Parte Final:

C F5(7M/9)/C
E|-----------------------------------------
B|----1------------1----1------------------
G|----0------------0----0------------------ (x3)
D|--2------2--3--3----3---3----------------
A|3-----3----------------------------------
E|-----------------------------------------

C
E|0----------------------------------------
B|1----------------------------------------
G|0----------------------------------------
D|2----------------------------------------
A|3----------------------------------------
E|-----------------------------------------

ACORDES PARA GUITARRA

PIANO UKELELE
C
Fmaj9
Am7
G11
G6
Dm9
Am9
C9/G
Em7
G/B


COMENTARIOS

Aún no hay comentarios,

¡escribe el primero!

Escribe una pregunta, duda o comentario sobre esta canción, te responderemos a la brevedad.

Las más tocadas de Bryan Adams

Toca una Canción al Azar de Bryan Adams
C
Fmaj9
Am7
G11
G6
Dm9
Am9
C9/G
Em7
G/B