One Night Love Affair
Bryan Adams
Acordes

Subida por Patricia
Álbum: Reckless ( 1984)


Más Versiones
Ver. 2
+A
-A
Intro: B B   E E  (x4)

Verse 1:
B E B E
You're the silent type....and you caught my eye
B Ab F# E
But I never thought that I'd be touchin' you
B E B E
How was I to know....I'd let my feelings go
B Ab F# E
And that I'd be yours before the night was through?

Chorus 1:
D D/C# Bm G A
One night love affair trying to make like we don't care
D D/C# Bm G A
we where both reaching out for something
D D/C# Bm G A
One night love affair pretendin' it ain't there
D D/C# Bm G A
Oh and now we're left with nothing

[Instrumental Break (play intro)]

Verse 2:
B E B E
When the morning breaks....we go our seperate ways
B Ab F# E
If the night was made for love it ain't for keeps
B E B E
But I loose control....as I watch you go
B Ab F# E
All my senses say I'm in this much too deep now you're outta' reach!

Chorus 2:
D D/C# Bm G A
One night love affair trying to make like we don't care
D D/C# Bm G A
we where both reaching out for something,...yeeeaaahhh!
D D/C# Bm G A
One night love affair pretendin' it ain't there
D D/C# Bm G A
Oh and now we're left with nothing,.......hey


Instrumental Break - Guitar solo:


E|---------------------------------------------------------------|
B|-------5~p4----------5-4---------5p4---------------------------|
G|--4-6-------4~--4-6------4~--4-6-----6-4-4---4-6-6~-4-6-7-6-4~-|
D|-------------------------------------------6-------------------|
A|---------------------------------------------------------------|
E|---------------------------------------------------------------|


E|-------------------------------------------------------|
B|-12-14-16-------12-14-16-------14-14-12-12----14-12-12-|
G|-----------13~------------13~--------------13----------|
D|--------------------------------------------------------|
A|-------------------------------------------------------|
E|-------------------------------------------------------|


E|--------------------------------16-14--|
B|-12---------12---------------17--------|
G|---15-13-11----15-13-11----------------|
D|------------------------14-------------|
A|----------------------------------------|
E|---------------------------------------|


Chorus 3:

D D/C# Bm G A
One night love affair trying to make like we don't care
D D/C# Bm G A
we where both reaching out for something,...yeeeaaahhh!
D D/C# Bm G A
One night love affair cause sometimes life ain't fair
D D/C# Bm G A
Oh and now we're left with nothing, nothing, yeeaah


Outro:

One night, One night, One night........



(fade out)

ACORDES PARA GUITARRA

PIANO UKELELE
B
E
Ab
F#
D
D/C#
Bm
G
A


COMENTARIOS

Aún no hay comentarios,

¡escribe el primero!

Escribe una pregunta, duda o comentario sobre esta canción, te responderemos a la brevedad.

Las más tocadas de Bryan Adams

Toca una Canción al Azar de Bryan Adams
B
E
Ab
F#
D
D/C#
Bm
G
A