Run To You
Bryan Adams
Acordes

Subida por Hectorbeb
Álbum: Reckless ( 1984)


Más Versiones
Ver. 2 Ver. 3 Ver. 4 Ver. 5
+A
-A
(Riff 1) Introdução e tocado durante a música:

E|-----------------|-----------------|
B|-----------------|-----------------|
G|-----------------|-----------------|
D|-----0-----0-----|-----0-----0-----|
A|---2-----2---2---|---2-----4---4---|
E|-0-----0-------0-|-3-----5-------5-|

(Riff 2) Feito em simultâneo na terceira vez do (Riff 1) na introdução:

E|-------------|
B|---3^3-------|
G|--------2^---|
D|-------------|
A|-------------|
E|-------------|

(Riff 3) Feiro em simultâneo no meio da música com o (Riff 1)

E|---10^10-------|
B|---------10^---|
G|---------------|
D|---------------|
A|---------------|
E|---------------|
Introdução:

(Riff 1)
(Riff 1)
(Riff 1)(Riff 2)
(Riff 1)

(Riff1)
She says her love for me could never die
But that'd change if she ever found out about you and I
Oh - but her love is cold
It wouldn't hurt her if she didn't know, 'cause...
C5 D5
When it gets too much
A5
I need to feel your touch

Refrão:
E5 G5 D5 A5
I'm gonna run to you
E5 G5 D5 A5
I'm gonna run to you
E5 G5 D5 A5
Cause when the feelin's right I'm gonna run all night
E5 G5 D5
I'm gonna run to you

(Riff 1)
(Riff 1)(Riff 3)

(Riff 1)
She's got a heart of gold she'd never let me down
But you're the one that always turns me on
You keep me comin' 'round
I know her love is true
But it's so damn easy makin' love to you

C5 D5
I got my mind made up
A5
I need to feel your touch

Refrão:

E5 G5 D5 A5
I'm gonna run to you
E5 G5 D5 A5
I'm gonna run to you
E5 G5 D5 A5
Cause when the feelin's right I'm gonna stay all night
E5 G5 D5 A5
I'm gonna run to you
E5 G5 D5 A5
I'm gonna run to you
E5 G5 D5 A5
Cause when the feelin's right I'm gonna run all night
E5 G5 D5
I'm gonna run to you

Ponte 2x:
E|----------------------------------------------------|
B|---9^9-----------7^7---------5^5----------7^7-------|
G|-------9-------------7-----------5------------7-----|
D|---------9-------------7-----------5------------7---|
A|----------------------------------------------------|
E|----------------------------------------------------|

E5 G5 D5 A5

E5 G5 D5

Refrão até o fim da música:

E5 G5 D5 A5
I'm gonna run to you
E5 G5 D5 A5
I'm gonna run to you
E5 G5 D5 A5
Cause when the feelin's right I'm gonna stay all night
E5 G5 D5 A5
I'm gonna run to you

ACORDES PARA GUITARRA

PIANO UKELELE
C5
D5
A5
E5
G5


COMENTARIOS

Aún no hay comentarios,

¡escribe el primero!

Escribe una pregunta, duda o comentario sobre esta canción, te responderemos a la brevedad.

Las más tocadas de Bryan Adams

Toca una Canción al Azar de Bryan Adams
C5
D5
A5
E5
G5